Chordie logo

Shout To The North  Delirious?

-----------------------------------------------------------


-----------------------------------------------------------


-----------------------------------------------------------


-----------------------------------------------------------


--------------------------------------3---3-3-3-----------


--3---3-3-3---3---3-3-3---3---3-3-3------------------------
-----------------------------------------------------------
-----------------------------------------------------------
-----------------------------------------------------------
-----------------------------------------------------------
-----------------------------------------------------------
--3---3-3-3---3---3-3-3---3--------------------------------


verse 1
Men of [G]faith rise [D]up and [Cm]sing
of the [G]great and [D]glorious [Cm]king
You are st[G]rong when [D]you feel [Cm]weak
in your [G]broke[D]ness [Cm]complete

chorus:
S[G]hout to the N[Cm]orth and the So[D]uth
S[G]ing to the [Cm]East and the [D]West
J[G]esus is[Cm] Saviour to[D] all
L[Cm]ord of [D]heaven and e[G]arth

verse 2:
G D C X3
-----3-----2--------------0--------------------------------
--------3-----3--------------3----------------------------
--------------------------------0--------------------------
-----------------0-----------------------------------------
-----------------------3-----------------------------------
--3--------------------------------------------------------


  [C]                                                           
--0-----0-----------0--------------------------------------
----3-----3-------3---3------------------------------------
------0-----0-----------0--0-------------------------------
-----------------------------------------------------------
---------------3-------------------------------------------
-----------------------------------------------------------


Rise up women of the truth
stand and sing to broken hearts
who can know the healing power
of our awesome king of love

chorus-2x
2nd time use Em instead of 3rd line G

Bridge:
We'[Em]ve been through fire, w[Cm]e've been through rain
we'[Em]ve been refined by the p[Cm]ower of his name
we'v[Em]e fallen deeper [Cm]in love with You
You've burnt the truth on our [D]lips

chorus-2x
1st time singing only
2nd time Em chorus

verse 3
Rise up[G] church wit[D]h broke[Cm]n wings
fill th[G]is place w[D]ith songs[Cm] again
of our God[G] who reign[D]s on high[Cm]
by His g[G]race [D]again[Cm] we'll fly

chorus-
1st time-no guitar
2nd time- G chorus
3rd and 4th time- Em chorus X3

[C9]Lord of[D] heaven and [G]earth
end on a single strum G

Important: The song above is NOT stored on the Chordie server. The original song is hosted at www.guitaretab.com. Chordie works as a search engine and provides on-the-fly formatting. Chordie does not index songs against artists/composers will. To remove this song please click here.

C C9 Cm D Em G
variations - click chord images

Login - add to songbook

Transpose chords

Tuning

Rating click stars to rate

Layout
Accuracy

SHARE PAGE  

You need to log in to post comments