Shout To The North

Delirious?

-----------------------------------------------------------

-----------------------------------------------------------
-----------------------------------------------------------
-----------------------------------------------------------
--------------------------------------3---3-3-3-----------
--3---3-3-3---3---3-3-3---3---3-3-3------------------------ ----------------------------------------------------------- ----------------------------------------------------------- ----------------------------------------------------------- ----------------------------------------------------------- ----------------------------------------------------------- --3---3-3-3---3---3-3-3---3--------------------------------

verse 1
 GDCm
Men of faith rise up and sing
 GDCm
of the great and glorious king
 GDCm
You are strong when you feel weak
 GDCm
in your brokeness complete

chorus:
 GCmD
Shout to the North and the South
 GCmD
Sing to the East and the West
 GCmD
Jesus is Saviour to all
 CmDG
Lord of heaven and earth

verse 2:
G D C X3
-----3-----2--------------0--------------------------------
--------3-----3--------------3----------------------------
--------------------------------0--------------------------
-----------------0-----------------------------------------
-----------------------3-----------------------------------
--3--------------------------------------------------------


 C
--0-----0-----------0--------------------------------------
----3-----3-------3---3------------------------------------
------0-----0-----------0--0-------------------------------
-----------------------------------------------------------
---------------3-------------------------------------------
-----------------------------------------------------------


Rise up women of the truth
stand and sing to broken hearts
who can know the healing power
of our awesome king of love

chorus-2x
2nd time use Em instead of 3rd line G

Bridge:
 EmCm
We've been through fire, we've been through rain
 EmCm
we've been refined by the power of his name
 EmCm
we've fallen deeper in love with You
 D
You've burnt the truth on our lips

chorus-2x
1st time singing only
2nd time Em chorus

verse 3
 GDCm
Rise up church with broken wings
 GDCm
fill this place with songs again
 GDCm
of our God who reigns on high 
 GDCm
by His grace again we'll fly

chorus-
1st time-no guitar
2nd time- G chorus
3rd and 4th time- Em chorus X3

 C9DG
 Lord of heaven and earth
end on a single strum G


C C9 Cm D Em G
variations - click chord images
Transpose chords:
Tuning:
Cool service:
View: Size:
A  A  A
Rating:
Layout:
  • Currently 2.4/5 Stars.
  • 1
  • 2
  • 3
  • 4
  • 5
 
Accuracy:
  • Currently 3.3/5 Stars.
  • 1
  • 2
  • 3
  • 4
  • 5
 
click stars to rate
Chordie recommends:
Learn to play guitar with video-based, online guitar lessons at JamPlay.com
Songbook:
Login to add this song to your songbook
Support the artist
Preview/buy this song
MSN Music
Why this non-profit ad?

 
login to add comments/video/corrections