Guitar Tabs, Chords and Lyrics


Apague El Sol  Delux

e------------l------------l-----------l-----------|l


B---------3--l---------3--l--------3--l--------3--|l


G-----0------l----0-------l----0------l----0------|l  (2)

D------------l------------l-----------l-----------|l
A------------l------------l--3---3----l--0---0----|l
E---3---3----l--0---0-----l-----------l-----------|l
e----------l----------l----------l-----------|l
B----------l----------l----------l-----------|l
G--7--5-4~-l--7--5-4~-l--7--5-4~-l-----4-----|l
D----------l----------l----------l--7----5---|l
A----------l----------l----------l-----------|l
E----------l----------l----------l-----------|l
e-------------------------------------------------------------|l
B-------------------------------------------------------------|l
G--7------5------7-------5--------5------5---------------7----|l
D--7------5------7-------5--------5------5--------5--5---7----|l
A--5------3------5-------3--------7------3--------5--5---5----|l
E-------------------------------------------------3--3--------|l
e----------------------------------------------------------------|l
B----------------------------------------------------------------|l
G--7------5------7-------5----------4------4----4-5--5-----------|l
D--7------5------7-------5----------4------4----4-5--5----5------|l
A--5------3------5-------3----------2------2----2-3--3----5------|l
E---------------------------------------------------------3------|l
hasta que [G5]apague el sol,[D5]apague el sol,[B5]apague el sol,[C5]hasta que apague el sol
[G5]apague el sol,[D5]apague el sol,[B5]apague el sol,[C5]hasta que apague el sol
siguen los versos y es igual todo como en el primer verso

es dificil despertar me siento fuera de lugar
es tan facil dar por hecho el poderte yo mirar
sonreir,el sabor que dan tus labiosal besarme tu a mi
yo te extraño

precoro
quiero besarte,quiero abrazarte,quiero sentirte junto a mi
e-------------------------------------------------------------|l
B-------------------------------------------------------------|l
G--7------5------7-------5--------5------5---------------7----|l
D--7------5------7-------5--------5------5--------5--5---7----|l
A--5------3------5-------3--------7------3--------5--5---5----|l
E-------------------------------------------------3--3--------|l

quiero pedirte,yo quiero decirte...que...estare esperandote
e----------------------------------------------------------------|l
B----------------------------------------------------------------|l
G--7------5------7-------5----------4------4----4-5--5-----------|l
D--7------5------7-------5----------4------4----4-5--5----5------|l
A--5------3------5-------3----------2------2----2-3--3----5------|l
E---------------------------------------------------------3------|l

coro
hasta que [G5]apague el sol,[D5]apague el sol,[B5]apague el sol,[C5]hasta que apague el sol
[G5]apague el sol,[D5]apague el sol,[B5]apague el sol,[C5]hasta que apague el sol

aqui es el break...es mejor si lo hacen sin distorcion

e------------l------------l-----------l-----------|l
B---------3--l---------3--l--------3--l--------3--|l
G-----0------l----0-------l----0------l----0------|l
D------------l------------l-----------l-----------|l
A------------l------------l--3---3----l--0---0----|l
E---3---3----l--0---0-----l-----------l-----------|l
e------------l------------l-----------l-------------|l
B---------3--l---------3--l--------3--l--3-3-3------|l
G-----0------l----0-------l----0------l--5-4-0------|l
D------------l------------l-----------l-------------|l
A------------l------------l--3---3----l-------------|l
E---3---3----l--0---0-----l-----------l-------------|l
e------------l------------l------------|l
B---------3--l---------3--l--------3---|l
G-----0------l----0-------l----0-------|l  se vuelve a cortar y entran con
D------------l------------l------------|l   G5
A------------l------------l--3---3-----|l
E---3---3----l--0---0-----l------------|l


coro

hasta que [G5]apague el sol,[D5]apague el sol,[B5]apague el sol,[C5]hasta que apague el sol
[G5]apague el sol,[D5]apague el sol,[B5]apague el sol,[C5]hasta que apague el sol

bueno eso es todo esta muy facil jejeje

Important: The song above is NOT stored on the Chordie server. The original song is hosted at www.guitaretab.com. Chordie works as a search engine and provides on-the-fly formatting. Chordie does not index songs against artists'/composers' will. To remove this song please click here.

Text color:
Chord color:
Chord grids: 
Font size:    
Page size: 

B5 C5 D5 G5
variations - click chord images

Login - add to songbook

Transpose chords

Tuning

Rating click stars to rate

Layout
Accuracy

SHARE PAGE  




You need to log in to post comments