Chordie logo

Fiction Kingdom   Demon Hunter



I think Ethan tunes his guitar in Drop B, giving it a deeper sound for power chords, but 
simply used Drop D since tuning down another 5 half-steps is a pain and I'm only 
the solo from about 2:47 to 4:01

E:----------------------------9-9-9:
B:---8-8-8---7-7-7---6-6-6--5------:
G:-7-------6-------5---------------:  X2
D:---------------------------------:
A:---------------------------------:
D:---------------------------------:

E:---------------------------------:
B:---------------------------------:
G:-----------------6666666666666666: X2
D:-99999999999999996666666666666666:
A:-99999999999999994444444444444444:
D:-9999999999999999----------------:

(3:34)
E:----------------------------------------10-----10-----10-:
B:-15/3-7-14-12-15/3-7-14-12-10-12-10-7/8----7/8----7/8----:
G:---------------------------------------------------------:
D:---------------------------------------------------------:
A:---------------------------------------------------------:
D:---------------------------------------------------------:

                    (3:46) Wildly Fast Picking
E:-------------------14-------15-15-14-------14-------15---:
B:7/8-10-12-14/15/14----12-12----------12-12----12-12------:
G:---------------------------------------------------------:
D:---------------------------------------------------------:
A:---------------------------------------------------------:
D:---------------------------------------------------------:


E:14-------14-------15-14-------14-------15-14-------14----:
B:---12-12----12-12-------12-12----12-12-------12-12----12-:
G:---------------------------------------------------------:
D:---------------------------------------------------------:
A:---------------------------------------------------------:
D:---------------------------------------------------------:

                   (3:55) Triplets
E:15-14-12-15-14-12-777999101010999101010121212101010121212:
B:---------------------------------------------------------:
G:---------------------------------------------------------:
D:---------------------------------------------------------:
A:---------------------------------------------------------:
D:---------------------------------------------------------:

  16th Notes (Slowly bend to 14)
E:12121212121212121313131314141414:
B:--------------------------------:
G:--------------------------------:
D:--------------------------------:
A:--------------------------------:
D:--------------------------------:



Important: The song above is NOT stored on the Chordie server. The original song is hosted at www.guitaretab.com. Chordie works as a search engine and provides on-the-fly formatting. Chordie does not index songs against artists/composers will. To remove this song please click here.

This song is displayed as text-only. Transposing and tuning is only available for chordpro-songs.

Login - add to songbook

Rating click stars to rate

Layout
Accuracy

SHARE PAGE  

You need to log in to post comments