Guitar Tabs, Chords and Lyrics


Annies Song   John Denver



Annies song

Verse
"= 4 times &= 8 times
                    &  "  "  "
e---"--"--"--"---|-4--5--4--2----|
b--2--4--6--2---&|-4--5--4--2---"|
g--2--4--6--2--1-|-5--6--5--3--1-|Then play End 1  then verse then end 2.
d--2--4--6--2--2-|-6--7--6--4--2-|
a--0--2--4--0--2-|-6--7--6--4--2-|
E--------------0-|-4--5--4--2--0-|
End 1
e---&|
b--4-|
g--4-|
d--4-|
a--2-|
E----|
End 2
e---&|
b--9-|
g--9-|
d--9-|
a--7-|
E----|


solo1

e-----------------------|
b-----------------------|
g--999989998----66689---|
d--------------------96-|
a-----------------------|
E-----------------------|

For the second part of the solo Im not completely sure what he plays.
A lot of hammer ons etc. The scale he is using i think is this, just
improvise on it.

e--10--7-------------------------------|
b-------10--9--7-----------------------|
g----------------9--7------------------|
d--------------------9--7--------------|
a------------------------9--8--7-------|
E--------------------------------10--7-|


Solo2
e-----------------------|---------------------|
b-----------------------|-999777997-----79----|
g--999989998----66689---|-----------999-----8-|
d--------------------96-|---------------------|
a-----------------------|---------------------|
E-----------------------|---------------------|

Guitar2 plays the single chords of the verse under the solo using the second ending both times.

Outro
"=4 times   &= 8 times
e----------------|------------------------|
b--2--4--6--2---"|--"--"--"--------------&|
g--2--4--6--2--9-|-8--6--4---"--"--"--"-9-|
d--2--4--6--2--9-|-8--6--4--7--6--4--2--9-|
a--0--2--4--0--7-|-6--4--2--7--6--4--2--7-|
E----------------|----------5--4--2--0----|

Pigeon!


Important: The song above is NOT stored on the Chordie server. The original song is hosted at www.guitaretab.com. Chordie works as a search engine and provides on-the-fly formatting. Chordie does not index songs against artists/composers will. To remove this song please click here.

This song is displayed as text-only. Transposing and tuning is only available for chordpro-songs.

Login - add to songbook

Rating click stars to rate

Layout
Accuracy

SHARE PAGE  




You need to log in to post comments