Tender Love

Derek and The Dominos

-------------------------------------------------------------------------------

-------------------------------------------------------------------------------
--------let ring---------
 ABbBCCDmaj9sus4
e|-----------------------|---------------------------|
B|--2---3---4---5---(5)--|---------------------------|
G|--2---3---4---5---(5)--|--------0------------0-----|
D|--2---3---4---5---(5)--|-----2-----2------4-----4--|
A|--0---1---2---3---(3)--|--3-----------/5-----------|
E|-----------------------|---------------------------|


 AA
e|----------------------------|----------------------------|
B|----------------------------|----------------------------|
G|---------2--2--2-2-------2--|---------2--2--2-2-------2--|
D|---------2--2--2-2-------2--|---------2--2--2-2-------2--|
A|---------0--0--0-0-------0--|---------0--0--0-0-------0--|
E|---—3b4-------------3b4-----|--0—3b4-------------3b4-----|


 AA
e|----------------------------|----------------------------|
B|----------------------------|----------------------------|
G|---------2--2--2-2-------2--|---------2--2--2-2-------2--|
D|---------2--2--2-2-------2--|---------2--2--2-2-------2--|
A|---------0--0--0-0-------0--|---------0--0--0-0-------0--|
E|--0—3b4-------------3b4-----|--0—3b4-------------3b4-----|


 AA
e|----------------------------|----------------------------|
B|----------------------------|----------------------------|
G|---------2--2--2-2-------2--|---------2--2--2-2-------2--|
D|---------2--2--2-2-------2--|---------2--2--2-2-------2--|
A|---------0--0--0-0-------0--|---------0--0--0-0-------0--|
E|--0—3b4-------------3b4-----|--0—3b4-------------3b4-----|


 DD
e|----------------------------|----------------------------|
B|---------3--3--3-3-------3--|---------3--3--3-3-------3--|
G|---------2--2--2-2-------2--|---------2--2--2-2-------2--|
D|---------0--0--0-0-------0--|---------0--0--0-0-------0--|
A|--0—3b4-------------3b4-----|--0—3b4-------------3b4-----|
E|----------------------------|----------------------------|


 AA
e|----------------------------|----------------------------|
B|----------------------------|----------------------------|
G|---------2--2--2-2-------2--|---------2--2--2-2-------2--|
D|---------2--2--2-2-------2--|---------2--2--2-2-------2--|
A|---------0--0--0-0-------0--|---------0--0--0-0-------0--|
E|--0—3b4-------------3b4-----|--0—3b4-------------3b4-----|
                                      --------let ring---------

 AABbBCCDmaj9sus4
e|--------------------------------------------------------------|
B|-------------2---3---4---5---(5)--|---------------------------|
G|-------------2---3---4---5---(5)--|--------0------------0-----|
D|---------2---2---3---4---5---(5)--|-----2-----2------4-----4--|
A|---------0---0---1---2---3---(3)--|--3-----------/5-----------|
E|--0—3b4---------------------------|---------------------------|


| / slide up
| \ slide down
| h hammer-on
| p pull-off
| ~ vibrato
| + harmonic
| x mute note

====================================================================== 20 August 2007










A B Bb C D
variations - click chord images
Transpose chords:
Tuning:
Cool service:
View: Size:
A  A  A
Rating:
Layout:
  • Currently 2.9/5 Stars.
  • 1
  • 2
  • 3
  • 4
  • 5
 
Accuracy:
  • Currently 3.6/5 Stars.
  • 1
  • 2
  • 3
  • 4
  • 5
 
click stars to rate
Chordie recommends:
Learn to play this song & others via video guitar lessons at JamPlay.com
Songbook:
Login to add this song to your songbook
Support the artist
Preview/buy this song
MSN Music
Why this non-profit ad?

 
login to add comments/video/corrections