Guitar Tabs, Chords and Lyrics


Sailin On  Derek Trucks Band

----------------------------------------------------------------------------



----------------------------------------------------------------------------

e|---------2--2--x--2--3--(3)--2--x----------------------------------------|
B|----0h3--3--3--x--3--3--(3)--3--x----------------------------------------|
G|-2-------2--2--x--2--2--(2)--2--x----------------------------------------|
D|---------------x----------------x----------------------------------------|
A|---------------x----------------x----------------------------------------|
E|---------------x----------------x----------------------------------------|
e|-------------2-3-3-2-----------------------------------------------------|
B|-----3-3-0-3-------------------------------------------------------------|
G|-2-4---------------------------------------------------------------------|
D|-------------------------------------------------------------------------|
A|-------------------------------------------------------------------------|
E|-------------------------------------------------------------------------|
Sailin' [D]on, Sailin' [G]on
I can [D]hear sweet voices [Dsus]singi[D]n, [A]hear sweet music [Asus]playi[A]n
Sailin' [D]on, Sailin' [G]on [Gm]
Oh, I [D]wish you were here with me[A] when I'm sailin [D]on
Well, the s[G]pring, summer, autumn, and w[D]inter
All I k[E]now, you're gonna lay your head on my p[A]illow
Ooh,[G] on a normal night, s[D]pring, summer, autumn, winter
All I k[E]now, you're gonna tell me which you p[A]refer
Sailin' [D]on, Sailin' [G]on [Gm]
Oh, I [D]wish you were here with me[A] when I'm sailin [D]on
(Intro Riff) D Dsus D

Everybody clap your hands


[D]  [G]  [Gm]   [D]  [Dsus]     [D]  [A]  [Asus]     [A]        [D]  [G]  [Gm] [D] [A] [D] 
Sailin' [D]on, Sailin' [G]on[Gm]
Oh, I [D]wish you could be with me [A]when I'm...[G]
Oh, I [D]wish you could be with me [A]when I'm...[G]
Oh, I [D]wish you could be with me [A]when I'm...[G]
Oh, I [D]wish you could be with me [A]when I'm...
(Intro Riff) D Dsus D

Sailin' on Everybody clap your hands


| h hammer-on
| x Mute note
============================================================================
www.derektrucks.com

Important: The song above is NOT stored on the Chordie server. The original song is hosted at www.guitaretab.com. Chordie works as a search engine and provides on-the-fly formatting. Chordie does not index songs against artists'/composers' will. To remove this song please click here.

Text color:
Chord color:
Chord grids: 
Font size:    
Page size: 

A Asus D Dsus E G Gm
variations - click chord images

Login - add to songbook

Transpose chords

Tuning

Rating click stars to rate

Layout
Accuracy

SHARE PAGE  




You need to log in to post comments