Chordie logo


Nuovo Millennio  Derozer

1----------------------------------------|


2-10-12-10-12-10--12-10---12-10----------|


3----------------------------------------|

4----------------------------------------|
5----------------------------------------|
6----------------------------------------|
1--------------------------------------------|
2--------------------------------------------|
3-12-11-12-11-12-11--12-11---12-11-----------|
4--------------------------------------------|
5--------------------------------------------|
6--------------------------------------------|
1--------------------------------------------------------------|
2--------------------------------------------------------------|
3--------------------------------------9-11-9-11-9-11-9--------|
4-14-12-14-12-14-12--14-12-14----------------------------------|
5--------------------------------------------------------------|
6--------------------------------------------------------------|
Nuovo millennio nuova[D5] generazione                          [B5]
capelli col[G5]orati ormai non sono più una trasgressione   [A5]
il mondo avanza[D5] e non si può fermare           [B5]
per trasgredire o[G5]rmai non si sa proprio più cosa[A5] inventare
vuoi di più.[G5]..           [A5]
la marijuan[D5]a ed i suoi derivati         [B5]
ormai li fuman[G5] solamente casalinghe e pen[A5]sionati
il sesso [D5]cambierà regolarmente        [B5]
a mano a mano che[G5] conosci nuova gente                 [A5]
nuovo mil[G5]lennio!     [A5]
e nuova generazionee ee[D5] ee eee[B5]    [G5]    [A5]
e nuova generazionee e[D5]e ee eee[B5]    [G5]    [A5]
ampl[G5]essi telematici ed amici ciber[A5]netici
virt[G5]uali gli stipendi per pagar cibi transge[D5]nici
[G5]millennio![A5]
e nuova generazionee e[D5]e ee eee[B5]    [G5]    [A5]
e nuova generazionee ee[D5] ee eee [B5]    [G5]    [A5]
e nuova generazione,[D5] generazione, gene[B5]razione, generazion[G5]e                  [A5]
e nuova generazione, g[D5]enerazione, generazio[B5]ne, generazioonee! [G5]                 [A5]        [D5]
è tutto ! commenti a fulvibus91@hotmail.it

Important: The song above is NOT stored on the Chordie server. The original song is hosted at www.guitaretab.com. Chordie works as a search engine and provides on-the-fly formatting. Chordie does not index songs against artists/composers will. To remove this song please click here.

Text color:
Chord color:
Chord grids: 
Font size:    
Page size: 

A5 B5 D5 G5
variations - click chord images

Login - add to songbook

Transpose chords

Tuning

Rating click stars to rate

Layout
Accuracy

SHARE PAGE  




You need to log in to post comments