Guitar Tabs, Chords and Lyrics


Gosso King Of Craer Lake   Desert Sessions



Tuning: Down 2 Whole Steps to C (C-F-Bb-Eb-G-C)
Notes:  'The Gosso King of Crater Lake' is track #1 on 'The Desert Sessions Vol. IV'
	'The Gosso King of Crater Lake' is track #5 on 'The Desert Sessions Vol. III/IV'


Verse:
 C|------------------------------------------------------------------||
 G|------------------------------------------------------------------||
Eb|------------------------------------------------------------------||
Bb|---------2b------------2b-----------2b-2b------------/9-9-9-9-9---||
 F|---2-5-2----5-2--2-5-2----5-2-5-2-5-------5-2--2-5-2--------------||
 C|------------------------------------------------------------------||


Chorus:
 C|-------------------------------------------------------------------|
 G|-------------------------------------------------------------------|
Eb|-------------------------------------------------------------------|
Bb|---------2-2-2-2-2--0-2-0-2-0-2-0-2-0-2------------2---------------|
 F|---2-5-2--------------------------------5-2--2-5-2---5-2-5-2-5-2---|
 C|-------------------------------------------------------------------|

 C|----------------------------------------||
 G|----------------------------------------||
Eb|----------------------------------------||
Bb|---2-2-2-2-2--0-2-0-2-0-2-0-2-0-2-------||
 F|----------------------------------5-2---||
 C|----------------------------------------||


Solo:
 C|----------------------------------------------------------------------|
 G|----------------------------------------------------------------------|
Eb|-----7---9-7--------------------7-----------7-9b--7-9-7-9b------7-9---|
Bb|---9---9-----9--7-7-7-------7-9---9-9-9-9-9-----------------7-9-------|
 F|----------------------9-7-7-------------------------------------------|
 C|----------------------------------------------------------------------|

 C|------------12--12--12--12--12--10--10--10--10---||
 G|---12-15-12-14b-14b-14b-12--14--12b-12b-12b-12---||
Eb|-------------------------------------------------||
Bb|-------------------------------------------------||
 F|-------------------------------------------------||
 C|-------------------------------------------------||


Solo Ending:
 C|-----------------||
 G|-----------------||
Eb|-----------7-9---||
Bb|-------7-9-------||
 F|---7-9-----------||
 C|-----------------||


Lyrics:
Be real. I can't transcribe this! The verses are too hard to 
understand as the singer has an effect on his voice.
I however, have transcibed the first chorus.

 I am the Gosso King
 "Oh, this is a great comfort"
 I am the Gosso King


Important: The song above is NOT stored on the Chordie server. The original song is hosted at www.guitaretab.com. Chordie works as a search engine and provides on-the-fly formatting. Chordie does not index songs against artists'/composers' will. To remove this song please click here.

This song is displayed as text-only. Transposing and tuning is only available for chordpro-songs.

Login - add to songbook

Rating click stars to rate

Layout
Accuracy

SHARE PAGE  




You need to log in to post comments