Chordie logo

Cake Who Shit On The   Desert Sessions



Intro Riff: (Guitars 1 & 3)
 C|------------------------------------------||
 G|------------------------------------------||
Eb|--11-11-11-9-9-9---------------------9-9--||
Bb|--11-11-11-9-9-9--9-9-9--7-7-7--9-9--9-9--||
 F|---9--9--9-7-7-7--9-9-9--7-7-7--9-9--7-7--||
 C|------------------7-7-7--5-5-5--7-7-------||


Main Riff: (Guitar 1 & Lead Guitar)
Variation 1.                                 Variation 2.
 C|---------------------------------------|---------------------------||
 G|---------------------------------------|---------------------------||
Eb|---------------------------------------|---------------------------||
Bb|---------------------------------------|---------------------------||
 F|---7/9-9--9--7/9--9--9---7h9p7h9p7-----|---7/9--9--9--12\9--9--9---||
 C|-----------------------------------7---|---------------------------||

Play a few notes from this scale 
at the end of each of those Variations:
 C|-----------------------7--9---||
 G|------------------7--9--------||
Eb|-------------6--9-------------||
Bb|--------7--9------------------||
 F|---7--9-----------------------||
 C|------------------------------||


Main Riff: (Guitars 2 & 3)
 C|----------------------------------------------|---------------------------------||
 G|----------------------------------------------|---------------------------------||
Eb|---9/11--11--11--9/11--11--11-----------------|---9/11--11--11--14\11--11--11---||
Bb|---9/11--11--11--9/11--11--11--9-9-9-9--7-7---|---9/11--11--11--14\11--11--11---||
 F|---7/9----9---9--7/9----9---9--9-9-9-9--7-7---|---7/9----9---9--12\9----9---9---||
 C|-------------------------------7-7-7-7--5-5---|---------------------------------||


Chorus Riff:
Guitar 1.
 C|-------------------||
 G|-------------------||
Eb|-------------------||
Bb|---9hbr-6----------||
 F|-----------9-7hb---||
 C|-------------------||

Guitar 2.
 C|------------------------------------------||
 G|------------------------------------------||
Eb|--11-11-11-9-9-9---------------------9-9--||
Bb|--11-11-11-9-9-9--9-9-9--7-7-7--9-9--9-9--||
 F|---9--9--9-7-7-7--9-9-9--7-7-7--9-9--7-7--||
 C|------------------7-7-7--5-5-5--7-7-------||

Guitar 3.
 C|-------------------------||
 G|-------------------------||
Eb|-------------------------||
Bb|-------------------------||
 F|---12--11------------9---||
 C|----------12--11--12-----||


Ending: (Guitars 1,2 & 3)
 C|-------||
 G|-------||
Eb|-------||
Bb|-------||

 F|---9---||


Important: The song above is NOT stored on the Chordie server. The original song is hosted at www.guitaretab.com. Chordie works as a search engine and provides on-the-fly formatting. Chordie does not index songs against artists/composers will. To remove this song please click here.

This song is displayed as text-only. Transposing and tuning is only available for chordpro-songs.

Login - add to songbook

Rating click stars to rate

Layout
Accuracy

SHARE PAGE  

You need to log in to post comments