Guitar Tabs, Chords and Lyrics


In The Arms Of Perdition   Despised Icon



B---------------------------------------------------------|
F#--------------------------------------------------------|
D---------6-6---------6-6-------------6-6-------------5-5-|
A---------5-5---------5-5-------------5-5---------4-4-4-4-|
E---------4-4---------4-4-------------4-4---------3-3-3-3-|
B-0-0-0-0-----0-0-0-0-----0-3-0-3-0-3-----0-0-0-0---------|

B---------------------------------------------------------|
F#--------------------------------------------------------|
D---------6-6---------6-6-------------6-6-------------5-5-|
A---------5-5---------5-5-------------5-5---------4-4-4-4-|
E---------4-4---------4-4-------------4-4---------3-3-3-3-|
B-0-0-0-0-----0-0-0-0-----0-3-0-3-0-3-----0-0-0-0---------|

B---------------------------------------------------------|
F#--------------------------------------------------------|
D---------------------------------------------------------|
A---------------------------------------------------------|
E---------4-4-4-4-4-4-4-4---------3-3-3-3-----------------|
B-4-4-4-4-----------------4-4-4-4---------4-4-4-4-4-4-4-4-|

B-----------------------------------------------------------------|
F#----------------------------------------------------------------|
D-----------------------------------------------------------------|
A-----------------------------------------------------------------|
E-3-3-3-3-3-3-3-3-3-3-3-3-----------------------------------------|


Important: The song above is NOT stored on the Chordie server. The original song is hosted at www.guitaretab.com. Chordie works as a search engine and provides on-the-fly formatting. Chordie does not index songs against artists'/composers' will. To remove this song please click here.

This song is displayed as text-only. Transposing and tuning is only available for chordpro-songs.

Login - add to songbook

Rating click stars to rate

Layout
Accuracy

SHARE PAGE  




You need to log in to post comments