Guitar Tabs, Chords and Lyrics


Awaken   Dethklok



Band:Dethklok                                                                
song:Awaken                                                                  
Intro                                                                        
                                                                             
                                                                             
                                                                             
E|-----------|                                                               
B|-----------|                                                               
G|-----------|x9  
D|-----------|    
A|--3-3-5-6--|    
E|-----------|  


E|-------------------------------------------------------------------| R
B|-------------------------------------------------------------------| E
G|-------------------------------------------------------------------| P
D|-----5-3-------------5-3-------------5-3-------------5-3-----------| E
A|-3-3-----6-5-3-----------6-5-3-----------6-5-3-----------6-5-3-5-6-| A
A|---------------3-4-4-----------4-5-5-----------5-6-6---------------| T


E|-----------------------------------------------|
B|-----------------------------------------------|
G|-----------------------------------------------|
D|-5-------8-------3-------5-------8-------3--3--|
A|-3-------6-------1-------3-------6-------1--1--|
E|-----------------------------------------------|



E|---------------------------------------------------|
B|---------------------------------------------------|
G|---------------------------------------------------|X2
D|-5---5---8-8-8-8-8---------------------------------|
A|-3-5-3-5-6-6-6-6-6---------------------------------|
E|---3---3----P.M----0-000-0-0-000-0-0-000-0-0-000-0-|


E|---------------------------------|   |---------|
B|---------------------------------|   |---------|
G|---------------------------------|X2 |---------|X16
D|-5---5---5---5---6---6---8---8---|   |---------|
A|-3-5-3-5-3-5-3-5-4-6-4-6-6-8-6-8-|   |-3-3-5-6-|
E|---3---3---3---3---4---4---6---6-|   |---------|



THAT'S ALL I HAVE FOR NOW. SOME OF THIS RIFFS REPEAT ALSO THE FIRST 2 RIFFS ARE FAST.






Important: The song above is NOT stored on the Chordie server. The original song is hosted at www.guitaretab.com. Chordie works as a search engine and provides on-the-fly formatting. Chordie does not index songs against artists'/composers' will. To remove this song please click here.

This song is displayed as text-only. Transposing and tuning is only available for chordpro-songs.

Login - add to songbook

Rating click stars to rate

Layout
Accuracy

SHARE PAGE  




You need to log in to post comments