Guitar Tabs, Chords and Lyrics


At The Hop   Devendra Banhart



Devendra Banhart
Nino Rojo
At The Hop (Largely adapted from skippypooss's tab)

Intro:
e---|---0---------------0---------|
B---|-------1-------1-------1-----|
G-0-|-----------0h2---2---------0-|x4
D---|---2-----2-------3-------3---|
A---|-3---3-------3-------3-------|
E---|-----------------------------|

Verse:
e|-------0---------------0---------------0---------------0---------|  
B|---1-------1-------1-------1-------1-------1-------1-------1-----|  
G|---------------0h2---2---------0---------------0h2-----2-------0-|  
D|-----2-------2-------3-------3-------2-------2-------3-------3---|  
A|-3-------3-------3-------3-------0-------0-------0-------0-------|  
E|-----------------------------------------------------------------|  
                                                                      
e|-------0---------------0---------------0---------------0---------|  
B|---1-------1-------1-------1-------1-------1-------1-------1-----|  
G|---------------0h2---2---------0---------------0h2-----2-------0-|  
D|-----2-------2-------3-------3-------2-------2-------3-------3---|  
A|-3-------3-------3-------3-------0-------0-------0-------0-------|  
E|-----------------------------------------------------------------| 

e|-------0---------------0---------------0---------------0---------|  
B|---1-------1-------1-------1-------1-------1-------1-------1-----|  
G|---------------0h2---2---------0---------------0h2-----2-------0-|  
D|-----2-------2-------3-------3-------2-------2-------3-------3---|  
A|-3-------3-------3-------3-------0-------0-------0-------0-------|  
E|-----------------------------------------------------------------| 

e|-------0---------------0---------------0---------------0---------|  
B|---1-------1-------1-------1-------1-------1-------1-------1-----|  
G|---------------0h2---2---------0---------------0h2-----2-------0-|  
D|-----2-------2-------3-------3-------2-------2-------3-------3---|  
A|-3-------3-------3-------3-------0-------0-------0-------0-------|  
E|-----------------------------------------------------------------| 

Middle 8:
e|-------5---------------5---------------3-----------3-------------|
B|-----------5---------------5---------------3-----------3---------|
G|---5-----------5---5-----------5---4-----------4-----------4---4-|
D|-----7-------7-------7-------7-------5-------5-------5-------5---|
A|-----------------------------------------------------------------|
E|-5-------5-------5-------5-------3-------3-------3-------3-------|

e|------5-----------5-----------5-----------5------3---3---3-----|
B|----------6-----------6-----------6-----------6--3-------------|
G|--------------7-----------7-----------7----------4-----------0-|
D|----7---7---7---7---7---7---7---7---7---7---7----5-5---5---5---|
A|-0-------------------------------------------------------------|
E|---------------------------------------------------------------|


Important: The song above is NOT stored on the Chordie server. The original song is hosted at www.guitaretab.com. Chordie works as a search engine and provides on-the-fly formatting. Chordie does not index songs against artists'/composers' will. To remove this song please click here.

This song is displayed as text-only. Transposing and tuning is only available for chordpro-songs.

Login - add to songbook

Rating click stars to rate

Layout
Accuracy

SHARE PAGE  




You need to log in to post comments