Guitar Tabs, Chords and Lyrics

Little Yellow Spider   Devendra Banhart

Artist: devendra banhart
Song: little yellow spider
Album: nino rojo (2004)

Fig. 1.

e --------------------------------------------2-----------|
B -----------3----------3----------3----------------------|
G -----2-2h4------2-2h4------2-2h4------2-2h4-------------|
D --0----------0----------0----------0--------------------|
A --------------------------------------------------------|
E --------------------------------------------------------|

Fig. 2.

e --------------------------------------------------------|
B -----------3----------3----------3----------3-----------|
G -----2-2h4------2-2h4------2-2h4------2-2h4-------------|
D --0----------0----------0----------0--------------------|
A --------------------------------------------------------|
E --------------------------------------------------------|

Fig. 3.

e --------------------------------------------------------|
B ----------0---------------------0-----------------------|
G -------0----------0----------0----------0---------------|
D -----2----------2----2-----2----------2----2------------|
A -0h2--------0h2--------0h2--------0h2-------------------|
E --------------------------------------------------------|

String parts on guitar:
e --10----------------------------------------------------|
B ------12--10-7-10--12-10-7-5--3---------(3)-------------|
G --------------------------------(4)-(2)-----------------|
D --------------------------------------------------------|
A --------------------------------------------------------|
E --------------------------------------------------------|
   (2:02, 2:43)                            (3:15)
e ------------------------------------  e ----------------|
B --10---7--5--3—-5/7\5---5--3--0--3--  B --12-10-12-10---|
G ------------------------------------  G ----------------|
D ------------------------------------  D ----------------|
A ------------------------------------  A ----------------|
E ------------------------------------  E ----------------|

Little yellow spider laughing at the snow
Well maybe that spider knows something that I don't know
Cuz I'm goddamn cold

Little white monkey staring at the sand
Maybe that monkey figured out something I couldn't understand
Who knows

Well I came upon a dancing crab and I stopped to watch it shake, I said,
'Dance for me just one more time before ya hibernate,
and ya come out a crab cake'

And hey there little snapping turtle, snapping at a shell
Oh there's mysteries inside I know
But what they are I just can't tell for sure

And hey there little baby crow, you're looking kind of mean
I think I oughta split before ya start letting off your spleen
For sure

And hey there little sexy pig, you mated with a man
And now you've got a little kid
With hooves instead of hands

And oh all of the animals, all of the animals

And hey there little mockingbird, they sing about you in songs
'Oh where ya been? Have ya broke a wing?'
I haven't heard ya in so long

And hey there little albatross, swimming in the air
'Aw, hey ya know I can't fly and I
Think we really oughta play fair'

And hey there mister happy squid, you move so psychedelically
You hypnotize with your magic dance all the animals in the sea
For sure

And oh all of the animals, all the animals

And hey there Mr. Morning Sun, what kind of creature are you
I can't stare, but I know you're there
Goddamn, how I wish I knew

And hey there Mrs. Lovely Moon, you're lonely and you're blue
It's kind of strange the way you change
But then again, we all do too

Music and Lyrics written by Devendra Banhart
Transcribed by ear, all my own work.
Good Luck

Important: The song above is NOT stored on the Chordie server. The original song is hosted at Chordie works as a search engine and provides on-the-fly formatting. Chordie does not index songs against artists/composers will. To remove this song please click here.

This song is displayed as text-only. Transposing and tuning is only available for chordpro-songs.

Login - add to songbook

Rating click stars to rate



You need to log in to post comments