Guitar Tabs, Chords and Lyrics


Die And Die Now   Devildriver



.  - palm mute           /  - slide up to
\  - slide down to       ~  - vibrato
h  - hammer on           b  - Bend
p  - pull off            Suffixes for bend
t  - tap                 f  - full bend    h - half bend
ph - pinched harmonic    q  - quarter bend t - tap bend
*  - see comment         ^  - Hold bend    r release bend
x  - Stuccatto           ~  - vibrato bend
,  - slight palm mute    () - ghost note, sustained note
"  - tremolo note         - Trill

Tuning: Dropped C

RIFF 1

|---------------------------------------------------|
|---------------------------------------------------|
|---------------------------------------------------|
|-0"-5"-6"-5"-0"-5"-6"-5"-0"-5"-6"-5"-0"-5"-7-6-5-6-|
|-0"-5"-6"-5"-0"-5"-6"-5"-0"-5"-6"-5"-0"-5"-7-6-5-6-|
|-0"-5"-6"-5"-0"-5"-6"-5"-0"-5"-6"-5"-0"-5"-7-6-5-6-|

RIFF 2

|-------------------------------------|
|-------------------------------------|
|-------------------------------------|
|-------------------------------------|
|---------------------------------0---|
|-000000000000000000000000000000--0---|
  ..............................

RIFF 3

|------------------|
|------------------|
|------------------|
|-3"-5"------------|
|-------4"---------|
|----------0000-00-|
           .... ..

RIFF 4

|----------------------------|
|----------------------------|
|----------------------------|
|----------------------3-2-1-|
|----------------------3-2-1-|
|-00-000-00-000-00-000-3-2-1-|
  .. ... .. ... .. ...

RIFF 5

|-------------------------|
|-------------------------|
|-------------------------|
|-0-0-0--0-1-0--0-3-2-1-2-|
|-0-0-0--0-1-0--0-3-2-1-2-|
|-0-0-0--0-1-0--0-3-2-1-2-|

END

Here you are! This is thw whole song, listen to it to figure out how many times you must
play the riffs! :)If you find any kind of mistakes, please mail me at: maguscaligula@hotmail.it


Important: The song above is NOT stored on the Chordie server. The original song is hosted at www.guitaretab.com. Chordie works as a search engine and provides on-the-fly formatting. Chordie does not index songs against artists/composers will. To remove this song please click here.

This song is displayed as text-only. Transposing and tuning is only available for chordpro-songs.

Login - add to songbook

Rating click stars to rate

Layout
Accuracy

SHARE PAGE  




You need to log in to post comments