Chordie logo


One Sided Society   Devotchkas



One-Sided Society - Devotchkas - Annihilation

Intro/Verse
e|------------------------|
b|------------------------|
g|--12--8------10---------|
d|--12--8--10--10--8--10--|
a|--10--6--10---8--8--10--|
E|----------8------6---8--|

Chorus
e|--------------------|
b|--------------------|
g|------8--10---------|
d|--10--8--10--8--10--|
a|--10--6---8--8--10--|


Important: The song above is NOT stored on the Chordie server. The original song is hosted at www.guitaretab.com. Chordie works as a search engine and provides on-the-fly formatting. Chordie does not index songs against artists/composers will. To remove this song please click here.

This song is displayed as text-only. Transposing and tuning is only available for chordpro-songs.

Login - add to songbook

Rating click stars to rate

Layout
Accuracy

SHARE PAGE  




You need to log in to post comments