"yes"; ?> How Do I Get Throught To You by Dexter Freebish - guitar chords, guitar tabs and lyrics - chordie

How Do I Get Throught To You

Dexter Freebish

 E-A-D-G-B-E
CHORDS
E--------------|
B--3---3---3---|
G--2---2---2---|
D--0---2---0---|
A------0---2---|
E----------3---|

 DAG
VERSE RIFF

 DA
E-----------------|-----------------|
B-----3-------3---|-----3-------3---|
G---2---2---2---2-|-------2-------2-|
D-0-------0-------|---2-------2-----|
A-----------------|-0-------0-------|
E-----------------|-----------------|


 GA
E-----------------|-----------------|
B-----3-------3---|-----3-------3---|
G-------2-------2-|-------2-------2-|
D---0-------0-----|---2-------2-----|
A-----------------|-0-------0-------|
E-3-------3-------|-----------------|


INTRO

 D

VERSE 1

 DA
 You're pushing me back
 G
But I pass right through you
 A
I'm slippin' through your cracks
 DA
 I wanna get close to you
 GA
But you just won't let me in
 DA
 You're pullin' away
 G
So my hands can't touch you
 A
So you can't feel my pain
 DA
 And there's no secrets
 GA
Between you and yesterday

CHORUS

 DA
 How do I get through to you
 GA
How do I get through to you
 DA
That there's no one in this world
 GA
Who wants you more than I want you

VERSE 2

 DA
 You hide behind the walls
 G
From the one's that love you
 AD
 The one you fear you might fall for
 A
And it's hard to ignore
 GA
The error in your ways

CHORUS

 DA
 How do I get through to you
 GA
How do I get through to you
 DA
That there's no one in this world
 GA
Who wants you more than I want you
BRIDGE (add 1st string open (high E) to all chords)
 DA
You must be so lonely  
 GA
You must be so lonely without me
 DA
You must be so lonely  
 GA
You must be so lonely without me
 DA
 How long must I wait
 GAD
For the sun to finally rise behind your eyes
 AGA
Or will you throw it all away 

CHORUS

 DA
 How do I get through to you
 GA
How do I get through to you
 DA
Cause there's no one in this world
 GA
Who wants you more than I want you

OUTRO

D A G A (repeat as needed)


A D G
variations - click chord images
Transpose chords:
Tuning:
Cool service:
View: Size:
A  A  A
Rating:
Layout:
  • Currently 4.6/5 Stars.
  • 1
  • 2
  • 3
  • 4
  • 5
 
Accuracy:
  • Currently 4.4/5 Stars.
  • 1
  • 2
  • 3
  • 4
  • 5
 
click stars to rate
Chordie recommends:
Check out JamPlay.com for online video guitar lessons
Songbook:
Login to add this song to your songbook
Support the artist
Preview/buy this song
MSN Music
Why this non-profit ad?

 
login to add comments/video/corrections