Guitar Tabs, Chords and Lyrics


I Cant  D I

I really ganna mi[B7]s it, your [G]hand holding mine
I really want to kis it, your hare close to mine
I really want to feel it, our love's almost dead
It was a slipping away, a slipping away, but I'll stay

B7 G ( The bass is doing C# A )
It was your fould, to say it was love
Well, it was your fould, playing it was enough
It's ganna to be my time to change the road we want
It's ganna be so fine to change the way you talk

And now[B], I li[A]ved the way you want, but it's[E] not the way it used to [B]be
And now, I want to choose my own way, like a bird that's flying free

But I ca[A]n't (caaaaan[E]'t) c[B]an't
But I can't (caaaaan't) can't

B7 G 2x
I really gonna mi[B7]s you, and [G]your beatiful face
I got to kis you, but you only have a few more days
I wanna be with you, oh no that's not true
After al I wanna know what you're going to do

And now[B], I li[A]ved the way you want, but it's[E] not the way it used to [B]be
And now, I want to choose my own way, like a bird that's flying free

But I ca[A]n't (caaaaan[E]'t) c[B]an't
But I can't (caaaaan't) can't no no
Ooh I can't (caaaaan't) can't Oooooh yeah
Yeaheah

B7 G 2x
You ganna had to [B7]take me, fo[G]r who I really am
If you really want to break me, you gatto know how and when
You ganna had to face it, our love is almost dead
But I don't want to be the on, that man, that made you said


Solo:

e|--16~ 16~ 16/14------11-12-11------11-12-11------4-5-4------------------------------
B|------------------------------12------------12---------5-7~-------------------------
G|------------------------------------------------------------------------------------
D|------------------------------------------------------------------------------------
A|------------------------------------------------------------------------------------
E|------------------------------------------------------------------------------------
e|-------0-2-4-----------------0-2-4--7~ 4-----11-12-11----11-12-11-------------------
B|--2-4---------2-4-2~ --2-4-2--------------------------12----------12----------------
G|------------------------------------------------------------------------------------
D|------------------------------------------------------------------------------------
A|------------------------------------------------------------------------------------
E|------------------------------------------------------------------------------------
e|--4-5-4-------------------------------------11-12-11----11-12-11--------------------
B|--------5-7---5-7-5---997997997997-12-9-7------------12----------12-----------------
G|------------------------------------------------------------------------------------
D|------------------------------------------------------------------------------------
A|------------------------------------------------------------------------------------
E|------------------------------------------------------------------------------------
e|--4-5-4-----------------------------------------------------------------------------
B|--------5-7--/15--17-11~   12~ -----------------------------------------------------
G|------------------------------------------------------------------------------------
D|------------------------------------------------------------------------------------
A|------------------------------------------------------------------------------------
E|------------------------------------------------------------------------------------


Ps. Can you please add this to my other post (Revenge):

Tabbed by Sjoerd van der Hoorn
http://www.we-are-at-work.tk/

Important: The song above is NOT stored on the Chordie server. The original song is hosted at www.guitaretab.com. Chordie works as a search engine and provides on-the-fly formatting. Chordie does not index songs against artists'/composers' will. To remove this song please click here.

Text color:
Chord color:
Chord grids: 
Font size:    
Page size: 

A B B7 E G
variations - click chord images

Login - add to songbook

Transpose chords

Tuning

Rating click stars to rate

Layout
Accuracy

Jango Player

SHARE PAGE  




You need to log in to post comments