Guitar Tabs, Chords and Lyrics


Free  D I

[F]   [C]   [F]   [Bb]                            
Making it real
Making it last
I just wanna feel

Chorus 1


[F5]    [C5]    [F5]    [C#5]    [G#5]    [Bb5]                 
Free (free to change the world)


Verse 2

[F]   [C]   [D]   [Bb]   [bass]                         
The sky above is falling
And someone's one the way
You can hear the angels calling
You can even hear them sing
the time feels right lose the brakes (+Riff1)
It's all about decisions
That only you can make

F5 G5 A5 Bb5 (Pm)

Making it real
Making it last
It's time to reveal
We'll get there

(Riff1)

e|------------------|
B|-6-5-6-5-6-5-6----|
G|------------------|
D|------------------|
A|------------------|
E|------------------|


Chorus 1


(Same as previous)

I'm free (free to change the world)

Verse 3

Same as Verse 2

If the world is all against you
You've got a aking heart
You can fear the devils size
You can also play his part
The time seems right (+Riff1)
To lose the brakes
It's all about the future
That only you can make

Making it real
Making it last
It's time to reveal
We'll get there

----------

Chorus 2
----------


[F5]F5  [C5]C5 ([F5]Riff[C#5]2)  [Bb5]C#5 Eb5 Bb5

(Riff2)

   [F]                                                  
e|-----------------|
B|-----------------|
G|-2-0-------------|
D|-----3-0---------|
A|---------3-0-----|
E|-----------------|


Bridge


F C F Bb (3x)
[F]   [C]   [F]   [C#5]    [G#5]    [Bb5]                    
I'm free free to change the world


Solo

[F5]    [C5]    [F5]    [C#5]    [Bb5]                     
e|--------13-13--------13-13------------------|
B|-16b18--------16b18--------16b18------------|
G|--------------------------------------------|
D|--------------------------------------------|
A|--------------------------------------------|
E|--------------------------------------------|


Chorus 3


F5 C5 D5 Bb5 (3x)
[F5]F5  [C5]C5  [F5](Rif[C#5]f2)  [Bb5]C#5 G#5 Bb5

Important: The song above is NOT stored on the Chordie server. The original song is hosted at www.guitaretab.com. Chordie works as a search engine and provides on-the-fly formatting. Chordie does not index songs against artists'/composers' will. To remove this song please click here.

Text color:
Chord color:
Chord grids: 
Font size:    
Page size: 

Bb Bb5 C C#5 C5 D F F5 G#5
variations - click chord images

Login - add to songbook

Transpose chords

Tuning

Rating click stars to rate

Layout
Accuracy

Jango Player

SHARE PAGE  




You need to log in to post comments