Guitar Tabs, Chords and Lyrics


Inside My Head  D I

   [C]    [C/D]     [Cmaj7]       [Bm]    [Em]    [D/F#]     [G]   [Cadd9]                         
E|-0----0----0-----2---0----x---3---3-----------||
B|-1----3----0-----3---0----3---3---3-----------||
G|-0----0----0-----4---0----2---0---0-----------||
D|-2----4----2-----4---2----0---0---2-----------||
A|-3----5----3-----2---2----x---2---3-----------||
E|-3----5----x-----2---0----2---3---x-----------||


Chords (distorted):
  [Em]    [D/F#]     [G]   [D]   [C]  [Cadd9]                                         
E|-0---x---3--2--0--3-----||
B|-0---3---3--3--1--3-----||
G|-4---2---0--2--0--0-----||
D|-2---0---0--0--2--x-----||
A|-2---x---x--x--3--3-----||
E|-0---2---3--x--3--3-----||



Verse 1 (acoustic):
Is it wise enough to [C]say
[C/D]That I'm better off without [C]you [Cmaj7]
[C/D]Is it cool enough to fa[C]ke  [Cmaj7]
[Bm]Cause all that I've been breathing is [C]about you [Cmaj7]


Verse 2 (acoustic)
Riff1 (elc. guitar)
E|-------------------||
B|--------3----------||
G|-----0-------------||
D|--2----------------||
A|-------------------||
E|-------------------||



Riff2 (elc. guitar)
HARMONIC!!!!!!!!
E|-----------------|
B|----7------------|
G|--------7--------|
D|-----------------|
A|-----------------|
E|-----------------|


C/D C Riff1
Is it wise enough to flow (flowing down)
[C/D]from the head until my t[C]oes [Cmaj7]
C/D C Riff1 Cmaj7
but somehow I don't really know
C/D C Riff2 Cmaj7
All that I've been doing is without you


Chorus (acoustic):
Is it [Em]you ins[D/F#]ide my [G]head
Is [D/F#]it    [Em]you ins[D/F#]ide who [G]says
C/D C (drum intro)
that I'll become someone else


Verse 3:
And [Em]on and on my [D/F#]mind keeps saying
[G]This is not what I believe in
[Em]This is w[D/F#]here it e[G]nds
And [Em]on and on my [D/F#]mind is made up
That [G]this is why it never stops


Pre-Chorus
Bm (Riff3) C
Alone, again
Bm (Riff3) C
Alone, again


Riff3 (elec. guitar)
E|----------2--------||
B|-------3-----------||
G|----4--------------||
D|-------------------||
A|-------------------||
E|-------------------||



Chorus (acoustic and distorted):
Is it y[Em]ou in[D/F#]side my [G]head
Is it [Em]you ins[D/F#]ide who [G]says
D(dist.) C/D(ac.) C
That I'll become someone else


Bridge (acoustic and distorted):
[Em]I didn't know that you're [D/F#]buzzing right through [Cadd9]inside my head
[Em]I didn't know that you're [D/F#]coming right through [Cadd9]inside my head
[Em]I didn't know that you're [D/F#]buzzing right through
[Cadd9]I didn't know that you're coming right through
[Em]I didn't,  [D/F#]I didn't, [Cadd9]I didn't know.


Solo (acoustic and distorted):
[Em]    [D/F#]      [Cadd9]      Oh, tell me

CHORUS (acoustic and distorted):
Is it [Em]you in[D/F#]side my [G]head
Is it [Em]you in[D/F#]side who [G]says
Is it [Em]you in[D/F#]side my [G]head


Outro:
elc. guitar
     [C/D]                          [C]          [Cmaj7]                  
E|---14-----15----14----15-----14---------3-----||
B|------15-----15----15-----15----15------5-----||
G|----------------------------------------5-----||
D|----------------------------------------3-----||
A|----------------------------------------3-----||
E|----------------------------------------5-----||


Acoustic guitar:
  [C/D]                        [C]         [Cmaj7]                        
E|------x------------x----x---------0-------||
B|------3----3-------3----1---------0-------||
G|------0------0-----0----0----0----0-------||
D|---4--4--------4---4----2---------2-------||
A|-5----5--5---------5----3--3---3--3-------||
E|------x------------x----x---------x-------||


HAVE FUN PLAYING IT!

Important: The song above is NOT stored on the Chordie server. The original song is hosted at www.guitaretab.com. Chordie works as a search engine and provides on-the-fly formatting. Chordie does not index songs against artists'/composers' will. To remove this song please click here.

Text color:
Chord color:
Chord grids: 
Font size:    
Page size: 

Bm C C/D Cadd9 Cmaj7 D D/F# Em G
variations - click chord images

Login - add to songbook

Transpose chords

Tuning

Rating click stars to rate

Layout
Accuracy

SHARE PAGE  




You need to log in to post comments