Bring Down Tomorrow

D I

  1e Couplet 

 AA/G#F#mD
  e|----------------------------------------------------------------------|
  B|----------------------------------------------------------------------|
  G|--9-9-9-9-9-9-9-9--9-9-9-9-9-9-9-9--6-6-6-6-6-6-6-6--7-7-7-7-7-7-7-7--|
  D|--7-7-7-7-7-7-7-7--6-6-6-6-6-6-6-6--4-4-4-4-4-4-4-4-------------------|
  A|-----------------------------------------------------5-5-5-5-5-5-5-5--|
  E|----------------------------------------------------------------------|


 AA/G#DD/C#D
  e|----------------------------------------------------------------------|
  B|----------------------------------------------------------------------|
  G|--9-9-9-9-9-9-9-9--9-9-9-9-9-9-9-9--7-7-7-7-7-7-7-7--7-7-7-7-7-7-7-7--|
  D|--7-7-7-7-7-7-7-7--6-6-6-6-6-6-6-6------------------------------------|
  A|------------------------------------5-5-5-5-5-5-5-5--4-4-4-4-5-5-5-5--|
  E|----------------------------------------------------------------------|


 AA/G#F#mD
  e|----------------------------------------------------------------------|
  B|----------------------------------------------------------------------|
  G|--9-9-9-9-9-9-9-9--9-9-9-9-9-9-9-9--6-6-6-6-6-6-6-6--7-7-7-7-7-7-7-7--|
  D|--7-7-7-7-7-7-7-7--6-6-6-6-6-6-6-6--4-4-4-4-4-4-4-4-------------------|
  A|-----------------------------------------------------5-5-5-5-5-5-5-5--|
  E|----------------------------------------------------------------------|


 AA/G#DD/C#D
  e|----------------------------------------------------------------------|
  B|----------------------------------------------------------------------|
  G|--9-9-9-9-9-9-9-9--9-9-9-9-9-9-9-9--7-------7---7---------------------|
  D|--7-7-7-7-7-7-7-7--6-6-6-6-6-6-6-6------------------------------------|
  A|------------------------------------5-------4---4------/5-------------|
  E|----------------------------------------------------------------------|


  Couplet 
 A
  Do you know
 A/G#F#m
  Tomorrow I'll be gone
 DA
  I need to run away
 A/G#DD/C#D
  From who I am         

 A
  And you know
 A/G#F#m
  It's a pretty world outside
 DA
  But take a look within
 A/G#DD/C#D
  My heart is worn out      

  Refrein 
 DE
  I don't wanna bring down tomorrow
 F#F#
  I just wanna live another day
 D
  What's going through my head now
 B
  That I'm about
 FE
  To throw it all away
 DE
  I don't wanna bring down tomorrow
Today

 AA/G#F#mD
  Couplet 
 A
  Time is u
 A/G#F#m
  I take it like a man
 DA
  Don't like the way I am
 A/G#DD/C#D
  Sometimes it hurts     
 A
  I'm playing the fool
 A/G#F#m
  But I know just what to do
 DA
  Can't make it up to you
 A/G#DD/C#D
  So let me go        

  Refrein 

 DE
  I don't wanna bring down tomorrow
 F#F#
  I just wanna live another day
 D
  What's going through my head now
 B
  That I'm about
 FE
  To throw it all away
 DE
  I don't wanna bring down tomorrow
 F#F#
  I just wanna live another day
 DE
  I don't care and I swear

  Bridge 

 DF#m
   Tell me, tell me where we're standing
 E
  Do you still believe in
 D
  In everything we have
 F#m
  Maybe maybe I am drowning
 E
  I'm trying to find the surface
 D
  We could work it out

  Refrein 

 DE
  I don't wanna bring down tomorrow
 F#F#
  I just wanna live another day
 D
  What's going through my head now
 B
  That I'm about
 FE
  To throw it all away
 DE
  I don't wanna bring down tomorrow
 F#F#
  I just wanna live another day
 DE
  I don't care and I swear
 A
  Today


A A/G# B D D/C# E F F# F#m
variations - click chord images
Transpose chords:
Tuning:
Cool service:
View: Size:
A  A  A
Rating:
Layout:
  • Currently 3.3/5 Stars.
  • 1
  • 2
  • 3
  • 4
  • 5
 
Accuracy:
  • Currently 3.5/5 Stars.
  • 1
  • 2
  • 3
  • 4
  • 5
 
click stars to rate
Chordie recommends:
Check out JamPlay.com for online video guitar lessons
Songbook:
Login to add this song to your songbook
Support the artist
Preview/buy this song
MSN Music
Why this non-profit ad?

 
login to add comments/video/corrections