Chordie logo

Beautiful Mess  Diamond Rio

  [Am]       [C]         [Am]         [C]                                 
E----------------------------------------------------------|

B----------------------------------------------------------|
G----------------------------------------------------------|
D-----------0-2~~---------0--------------------------------|
A-----3-2-3---------3-2-3----------------------------------|
E-3~~-----------------------3~~~~--------------------------|

The lick is also at the a ahhhh a ah a ahhh part where
it the last note slides in up to the 5th fret like in
the outro

E----------------------------------------------------------|

B----------------------------------------------------------|
G-----0----------------------------------------------------|
D-2-3-----3------------------------------------------------|
A-------3--------------------------------------------------|
E----------------------------------------------------------|



Verse 1:

[Am]I'm going out of my mind these d[C]ays
[Am]Like I'm walkin' round in a ha[C]ze
I can't think st[Dm]rait,  I can't conce[F]ntrate,
and I need a s[Am]have

Verse 2:

[Am]I go to work and I look t[C]ired
[Am]The Bossman says son your gonna get f[C]ired
this aint your s[Dm]tyle, and behind my coff[F]ee cup
I just s[Am]mile

Chorus:

W[C]hat a beautiful mess, what a beautiful m[G]ess I'm in
spending a[F]ll my time with you
there's no[F]thing [G]else I'd r[Am]ather do [C/B]
[C]What a sweet addiction that I'm cau[G]ght up in
cause [F]i can't get enough,
can't stop the h[C]unger f[C/B]or your lov[Am]e

What a beautiful ,
what a beautiful m[Am]ess I'm in a ahhh[C]hh a ah a ahhh[Am]

Verse 3:

[Am]This morning I put salt in my cof[C]fee
[Am]I put my shoes on the wrong fe[C]et
I'm losing my mind I swe[Dm]ar, It might be the dea[F]th of me
But I don't c[Am]are

Repeat Chorus

Bridge:

[C]Is it your eyes[Am], Is it your smile
[C]All that I know is that you'r[Am]e driving me wild


Repeat Chorus (Without last 2 lines)

Repeat Chorus (Whole chorus)

a ahh[C]hhh a ah a ah[Am]hh


Outro (The very last time you hear it)

E----------------------------------------------------------|

B----------------------------------------------------------|
G----------------------------------------------------------|
D-------0-2/5----------------------------------------------|
A-3-2-3--------3----2-3------------------------------------|
E-----------------------3----------------------------------|

Important: The song above is NOT stored on the Chordie server. The original song is hosted at www.guitaretab.com. Chordie works as a search engine and provides on-the-fly formatting. Chordie does not index songs against artists/composers will. To remove this song please click here.

Am C C/B Dm F G
variations - click chord images

Login - add to songbook

Transpose chords

Tuning

Rating click stars to rate

Layout
Accuracy

SHARE PAGE  

You need to log in to post comments

RobShriver (report)

capo 1