eToCache5 = ""; ?> My Life Live by Dido - guitar chords, guitar tabs and lyrics - chordie

My Life Live

Dido

 //

 F#mE(ADC#
e--------------2------------------------------------------------------------------------------------
B------------------2-------------------2-----------------------7-----------------------6~~ (vib)----
G----------2-----------2-----------2-------2---------------7-------7---------------6----------------
D------4-----------------------2---------------2-------7---------------7-------6--------------------
A--------------------------------------------------5-----------------------4------------------------
E--2-----------------------0------------------------------------------------------------------------

I I I I I I I I ->
e--------------2-------2p4--------------------------------------------------------------------------
B------------------2-------------------2-p-3---5---------------7-----------7-----------6------------
G----------2-----------------------2-----------------------7-------7-----------6-------6------------
D------4-----------------------2-----------------------7---------------7-----------6----------------
A--------------------------------------------------5-----------------------4-----------4------------
E--2-----------------------0------------------------------------------------------------------------

I I I I I I I I I
// Intro And Verse 1 and Chorus:
// ==============================
// Just start to play the riff above and the melody (Dido's voice)
// starts just a little bit after the end of the chord D and just
// before to play again the riff with the F#m chord e.g
 //
 DF#mE(AC#
e--------------------------------------2-----------------------------------------------------------<
B--7-----------6---------------------------2-------------------2-----------------------7-----------<
G------6-------6-------------------2-----------2-----------2-------2---------------7-------7-------<
D----------6-------------------4-----------------------2---------------2-------7---------------7---<
A--4-----------4-----------------------------------------------------------5-----------------------<
E--------------------------2-----------------------0-----------------------------------------------<

I I I I I I I I
^ ^ ^
^ ^ ^
^ ^ ^
{intro ends....) What I... choose.............. to do................is of no concern....

// Lyrics:
// =======

 F#mADC#
What I choose to do is of no concern to you and your

 F#mADC#
 friends                 

 F#mADC#
Where I lay my hat may not be my home

 F#mADC#
But I will last    on my own  

'Cause it's me,
and my life,
it's my life

Oh the world has sat in the palm of your hand not that you'd see
And I'm tired and bored of waiting for you
And all those things you never do

'Cause it's me,
and my life,
it's my life

A C# D F#m
variations - click chord images
Transpose chords:
Tuning:
Cool service:
View: Size:
A  A  A
Rating:
Layout:
  • Currently 0/5 Stars.
  • 1
  • 2
  • 3
  • 4
  • 5
 
Accuracy:
  • Currently 0/5 Stars.
  • 1
  • 2
  • 3
  • 4
  • 5
 
click stars to rate
Chordie recommends:
Learn how to play guitar at JamPlay.com
Songbook:
Login to add this song to your songbook
Support the artist
Preview/buy this song
MSN Music
Why this non-profit ad?

 
login to add comments/video/corrections