Guitar Tabs, Chords and Lyrics


Als Ich Den Punk Erfand  Die ÄRzte

   [C]    [E]    [a]    [G]    [d]    [G7]    [F]    [E7]                                                                   
1:---|-0-|-5-|-3-|-5-|-3-|-1-|-0-|
2:-5-|-0-|-5-|-3-|-6-|-6-|-1-|-3-|
3:-5-|-1-|-5-|-4-|-7-|-4-|-2-|-1-|
4:-5-|-2-|-7-|-5-|-7-|-3-|-3-|-2-|
5:-3-|-2-|-7-|-5-|-5-|-5-|-3-|-2-|
6:---|-0-|-5-|-3-|---|-3-|-1-|-0-|



Jazz-Intro


1.Strophe:
Als ich den [C]Punk erfand,
Da war das alles un[E]erschlossenes Land.
Am Feuer saßen die [a]Leute und brieten ihre [G]Beute,
Und wuschen [d]sich mit Sand - bis ich den [G7]Punk erfand.

Und ohne Punk gäb's auch kein [a]Dosenpfand,
Denn Bier in freier [G]Na[F]tur, das ist Punkrock [G]pur,
Und auch höchst [C]extravagant - weil ich den [E7]Punk erfand.

Mann, was bin ich für 'ne [a]crazy Cunt,
Und neben [G]dem [F]Bier ist auch als Wert[G]papier,
Der Punk höchst [E7]interessant.
Am Neuen Markt entwickelt [a]er sich rasant.
Und eins, das muss man [G]ihm [F]gönnen,
Was drei Akkorde so [G]können,
Ist wirklich [E7]exorbitant.
C(Fill1)
Ein Glück, dass ich den Punk erfand!


Fill1:
   [C]                                                                                              
1:---------------|
2:---------------|
3:-9-----7-----5-|
4:--(8x)--(4x)---|
5:-7-----5-----3-|
6:---------------|



Solo (Eine Orgel spielt dasselbe Solo wie die Gitarre):
               [C]                        [E]                   [a]            [F]      [G7]                     
1:-----------|------------------------|-----------------|-----------------|------------1-|
2:-----------|------------------------|-----------------|-------1---------|-----0---3----|
3:-----------|------------------------|---1-----------0-|-2--2-----2--0-2-|-0------------|
4:-0^2--0----|-2--2-2---2-2-2-3-2-0---|2----2---2--2----|-----------------|--------------|
5:---------3-|----------------------3-|-----------------|-----------------|--------------|
6:-----------|------------------------|-----------------|-----------------|--------------|



2.Strophe:
Als ich den [C]Punk erfand,
Da habe ich eines leider [E]nicht erkannt,
Skrupellose Expor[a]teure verkaufen für ein paar [G]Øre,
Den Punk auch ans [d]Feindesland.
Und die Gefahr ist wirklich [G]eklatant,

Um nicht zu sagen [a]hochbrisant.
Am besten [G]ich [F]schaffe eine Ab[G]wehrwaffe,
Gewaltig und [C]imposant.

In mühsamen [a]Forschungsstunden,
Zum Schutz der [G]Ge[F]meinde und gegen alle [G]Feinde,
Habe ich den Jazz erfunden.


Jazz-Outro:

Jazz! Lebe Jazz! Lebe!

Important: The song above is NOT stored on the Chordie server. The original song is hosted at www.guitaretab.com. Chordie works as a search engine and provides on-the-fly formatting. Chordie does not index songs against artists'/composers' will. To remove this song please click here.

Text color:
Chord color:
Chord grids: 
Font size:    
Page size: 

C E E7 F G G7
variations - click chord images

Login - add to songbook

Transpose chords

Tuning

Rating click stars to rate

Layout
Accuracy

SHARE PAGE  




You need to log in to post comments