Guitar Tabs, Chords and Lyrics


Baby  Die ÄRzte

1:-----------------------------------------


2:----3-3--------2--------0-------0-----2--


3:-----4-4-----2--2-----0--0-------0-----2-

4:--4-----4---2-2--2---0-0--0----0----2----
5:-2---------0-----------------------0-----
6:----------2-------0-3-------0-3----------
1:-----------------------------------------
2:----3-3--------2--------0-------0-----2--
3:-----4-4-----2--2-----0--0-------0-----2-
4:--4-----4---2-2--2---0-0--0----0----2----
5:-2---------0-----------------------0-----
6:----------2-------0-3-------0-3----------
1:-----------------------------------------
2:----3-3--------2--------0-------0-----2--
3:-----4-4-----2--2-----1--1-------0-----2-
4:--4-----4---2-2--2---2----2----0----2----
5:-2---------0-----------------------0-----
6:----------2-------0---------0-3----------
Hol die Hühner aus dem [G]Käfig, die schmecken nicht [A]besser als du
D h h/G
Gib Schweinen eine Chance, hör auf mich und spar dir das Geld
Iss lieber einen [G]Menschen, gegen den Hunger für [A]eine [A7]bessere [D]Welt  [Db]


h A G
Das dicke, dicke Kind der Nachbarn schreit stundenlang vor deiner Tür
A h
(draußen vor deiner schönen Tür)
Gib ihm ein Ü-ber[A]raschungsei und du kriegst [E]frisches Fleisch da[G]für
(lecker! [A]Kinderbeinchen!)
h A G
Wenn dein Chef dir auf die Nerven geht, lad ihn mal zum Essen ein
A h
(Schluß mit der ewigen Arschkriecherei!)
Er selbst ist dann das [A]Hauptgericht, (greif' zu!) das wird 'ne [E]schöne
Über[G]raschung [A]sein.


Refrain:
D h h/G
Gib Schweinen eine Chance, lass die armen Rinder in Ruh
Lass Lämmer länger [G]leben, brich endlich das [A]letzte Tabu
D h h/G
Gib Schweinen eine Chance, beiß lieber in 'nen Menschen hinein
Aus artgerechter [G]Haltung - sag mir, was [A]könnte [A7]besser [D]sein?
>Solo


Solo:
D h G
1:------------------------|-------------------------|--------------------|
2:----------------15~~----|-------------------------|--------------------|
3:----14--12--------------|--14-12------------------|--------------------|
4:------------16----------|--------16---------------|--------------------|
5:------------------------|---------------14/16--14-|--------------------|
6:------------------------|-----------14------------|----7-9-10--7-9-10--|
1:--------------------------------------------------------------21b22...--|
2:-----------------------------------------------------------------------|
3:-----------------------------------------------------------------------|
4:-------------7-9-11----------------------------------------------------|
5:------7^9^10------------------------------------------------------------|
6:-9-10------------------------------------------------------------------|



Bridge:
[C]Wenn dir der Magen knurrt, ruf 110 statt call a [D]pizza
(Pizza, keine Pizza... don't call kommt keine Pizza)
[C]Die schicken gleich drei Mann, da kaust du lange dran
[D]und ohne Bart schmecken die [A4]Spitze[A]


Refrain(Der obere Teil als Gockenspiel):
D h h/G
Gib Schweinen eine Chance,
Gib Schweinen eine [G]Chance, [A]
D h h/G
Gib Schweinen eine Chance,
Gib Schweinen eine [G]Chance, [A]


D h h/G
Gib Schweinen eine Chance, lass die armen Rinder in Ruh
Lass Lämmer länger [G]leben, die schmecken nicht [A]besser als [A7]du
D h h/G
Wenn dein Lebensabschnittspartner im Bett doch eher langweilig ist
Dann sorgt ein bißchen [G]Chili dafür, daß du ihn [A]nie mehr ver[A7]gißt


3.Strophe:
[E]  Und jetzt seh ich dich erbleichen, weil äh...
c#
In meinem Kühlschrank siehst du Leichenteile
[A]  Doch ich lass dich noch ein Weilchen heile
[B4]  Bevor ich dich mit meinem [B]Beil zerteile


Refrain:
E c# c#/A
Geht Liebe durch den Magen, dann liebst du deine Mitmenschen sehr
Gib Schweinen eine [A4]Chance[A], iss lieber einen [B]Kindergarten [E]leer

Important: The song above is NOT stored on the Chordie server. The original song is hosted at www.guitaretab.com. Chordie works as a search engine and provides on-the-fly formatting. Chordie does not index songs against artists'/composers' will. To remove this song please click here.

Text color:
Chord color:
Chord grids: 
Font size:    
Page size: 

A A4 A7 B B4 C D Db E G
variations - click chord images

Login - add to songbook

Transpose chords

Tuning

Rating click stars to rate

Layout
Accuracy

SHARE PAGE  




You need to log in to post comments