Guitar Tabs, Chords and Lyrics


Wahre Liebe  Die ÄRzte

1:-3-|-3-|-3-|-3-|-5-|-1-|-0-|-1-|-2-|---|-1-|


2:-5-|-3-|-3-|-1-|-5-|-1-|-0-|-3-|-4-|---|-1-|


3:-5-|-4-|-5-|-2-|-5-|-2-|-0-|-2-|-4-|-5-|-3-|

4:-5-|-5-|-5-|-3-|-7-|-3-|-2-|-0-|-4-|-5-|-3-|
5:-3-|-5-|-5-|(3)|-7-|-3-|-2-|---|-2-|-2-|-3-|
6:---|-3-|-3-|-1-|-5-|-1-|-0-|---|---|---|-1-|
   [C]              [G]           [F]              [a7]          [G]                                         
1:------3------|-----3--3-|------3------|-------3-|---------|
2:---------1---|-----1--0-|---------1---|-----1---|---------|
3:----0------0-|---0------|----2------0-|---2-----|-----0-2-|
4:-------------|----------|-------------|---------|---2-----|
5:-3-----------|----------|-------------|-0-------|---------|
6:-------------|-3--------|-1-----------|---------|-3-------|

   [C]              [G]           [a7]              [F]          [G]                                         
1:------3------|-----3--3-|------3------|-------3-|---------|
2:---------1---|-----1--0-|---------1---|-----1---|-----0-1-|
3:----0------0-|---0------|----2------0-|---2-----|---0-----|
4:-------------|----------|-------------|---------|---------|
5:-3-----------|----------|-0-----------|---------|---------|
6:-------------|-3--------|-------------|-1-------|-3-------|

   [C]             [G]               [F]              [a7]          [G]                                      
1:------3------|-----3--3----|------3------|-----3-3-|-----3-3-|
2:---------1---|-----1--0--1-|---------1---|-----1-1-|-----0-1-|
3:----0------0-|---0---------|----2------2-|---2-----|---0-----|
4:-------------|-------------|-------------|---------|---------|
5:-3-----------|-------------|-------------|-0-------|---------|
6:-------------|-3-----------|-1-----------|---------|-3-------|

C G a7* F G
1:------3------|-----3--3----|------3------|-------3-|---------|
2:---------1---|-----1--0--1-|------1--1---|-----1---|-------1-|
3:----0------0-|---0---------|----2------2-|---2-----|---0-2---|
4:-------------|-------------|-------------|---------|---------|
5:-3-----------|-------------|-0-----------|---------|---------|
6:-------------|-3-----------|-------------|-1-------|-3-------|

37 Grad...

[C]  Schahlala[G]huh [G4]   [G]  a[Fj7]uSchahlala[a]hohoho[G]hoho[C]ho.
G G4 G a F G C (scratch)
Schahlalahoh auSchahlalahohohohohoho.


1.Strophe (Begleitung in den ersten 4 Zeilen):

Begleitung (Mit der cleanen Gitarre):
   [C]                        [F]                                                                  
1:-3----3-----3-----3----|----------3-----3-----3----|
2:----1----1-----1-----1-|-1-----1-----1-----1-----1-|
3:-----------------------|----2----------------------|
4:-----------------------|---------------------------|
5:-----------------------|---------------------------|
6:-----------------------|---------------------------|

     [C]                          [G]                                                              
1:--------3-----3-----3----|--------3-----3-----3----|
2:-0----1----1-----1-----1-|-0----1----1-----1-----1-|
3:---0---------------------|---0---------------------|
4:-------------------------|-------------------------|
5:-------------------------|-------------------------|
6:-------------------------|-------------------------|



[C]Tanya, die war tanzen in [F]einer Diskothek.
[C]  Und da traf sie einen [G]Punker.
[C]Ein viertel Jahr später wusst [G]sie [F]nicht mehr wie er hieß. [G]  [F]
[C]  Und war im dritten Monat [C]sch[G]wanger.[G4]   [G]
    F       C    G     C          F      C       G  Fill: 6:--3-4-3-5-3-6-3-|

Und als sie Gabi das erzählt sagt Gabi: "Ui, ui, ui.
F C G C a G F-Fill
Mir kann das zum Glück nicht passier'n, denn ich bin meinem Uwe treu.


F-Fill:
   [F]                  [F]                                                                        
1:-----------------|-----------------|
2:-----------------|-----------------|
3:-----------------|-----------------|
4:-3-2-3-2-3-2-3-2-|-3-2-3-2-3-2-3-2-|
5:-3-2-3-2-3-2-3-2-|-3-2-3-2-3-2-3-2-|
6:-1-0-1-0-1-0-1-0-|-1-0-1-0-1-0-1-0-|


Refrain:
Weil er mich [C]liebt, ist er [G]nett zu [G4]mir.[G]
Weil [G4]er [G]mich [F]liebt, lässt er mich [a]nie al[G]lein.
Weil [G]er mich [C]liebt, schenkt er mir [G]Ro[G4]sen.[G]
Und ich [a]glaube er wird [F]immer [G]bei mir [C]sein."

[C]  Schahlala[G]huh [G4]   [G]  a[Fj7]uSchahlala[a]hohoho[G]hoho[C]ho.
G G4 G a F G C (scratch)
Schahlalahoh auSchahlalahohohohohoho. Take it away then.


Solo:

   [C]        [G]   [G4]   [G]          [F]        [G]   [G4]   [G]          [C]            [G]                             
1:-----------------------|-----------------------|--------------------|
2:-----------------------|-----------------------|--------------------|
3:-----------------------|-----------------------|--------------------|
4:-----------------------|-----------------------|-------------5--5-5-|
5:-3---5/7-5--5-3--5^3^0-|-3---5/7-5--5-3--5^3^0-|-3--3-3--5/7--------|
6:-----------------------|-----------------------|--------------------|

F e d H C (scratch)
1:-------------|--------------|
2:-------------|--------------|
3:-------------|--------------|
4:-5-7-5---5-5-|--------------|
5:-------------|-8-8---7--8-7-|
6:-------------|--------------|



2.Strophe (Begleitung in den ersten 4 Zeilen):
[C]Tanya die wird neidisch, als [F]Gabi so erzählt,
[C]  Wie lang die Beiden sich schon [G]kennen.
Und [C]dass er immer [C/B]nett ist [F]und sie auch selten quält ([F4]auch sel[F]ten [C]quält).
C-Fill G G4 G
Und dass sie sich bestimmt nie trennen.


C-Fill:
1:--------8--------|
2:-----8-----8-----|
3:-5/9---------9/5-|
4:-----------------|
5:-----------------|
6:-----------------|
     F        C       G        C        F     C        G     Fill: 6:--3-4-3-5-3-6-3-|

"Ich zeig Dir mal ein Bild von ihm. Ich hoffe nur, ich find' es.
F C G C a' G F-Riff
"Ach hier...", und Tanya wird ganz bleich, "Das ist der Vater meines Kindes!"


Refrain (3x):
Weil er mich [C]liebt, ist er [G]nett zu [G4]mir.[G]
Weil [G4]er [G]mich [F]liebt, lässt er mich [a]nie al[G]lein.
Weil [G]er mich [C]liebt, schenkt er mir [G]Ro[G4]sen.[G]
Und ich [a]glaube er wird [F]immer [G]bei mir [C]sein."


Tausendmal berührt...

Important: The song above is NOT stored on the Chordie server. The original song is hosted at www.guitaretab.com. Chordie works as a search engine and provides on-the-fly formatting. Chordie does not index songs against artists'/composers' will. To remove this song please click here.

Text color:
Chord color:
Chord grids: 
Font size:    
Page size: 

C C/B F F4 G G4
variations - click chord images

Login - add to songbook

Transpose chords

Tuning

Rating click stars to rate

Layout
Accuracy

SHARE PAGE  




You need to log in to post comments