Chordie logo


Grosses Glied   Die Kassierer



Die Kassierer-Grosses Glied
It is an really easy song, but enjoy it...it s very funny
Tabbed by :Simonaldo
If you have any Questions...you can mail me... I_Love_Clerasil@yahoo.de


Stophe:
E|--------------------------------------|
H|--------------------------------------|
G|--------------------------------------|
D|--------------------------------------|
A|-3-3-3-3-3------------3-3-3-3-3-3-----|
E|------------3-3-3-3-3-----------------|
   pm...................................

E|--------------------------------------|
H|--------------------------------------|
G|--------------------------------------|
D|----------------------------------5---|
A|------------3-3-3-3-3-------------5---|
E|-1-1-1-1-1------------3-3-3-3-3-3-3---|
   pm..............................


Refrain:
E|--------------------------------------|
H|--------------------------------------|
G|---5----------------------------------|
D|---3------------5----------------5----|        Mein Glied ist zu groß du
A|----------------3---5------------3----|        du bist zu eng für mich
E|--------------------3-----------------|
Or you can play it like this:
E|--------------------------------------|
H|--------------------------------------|
G|---10---------------------------------|
D|---10----------10---5------------10---|
A|---8-----------10---5------------10---|


Important: The song above is NOT stored on the Chordie server. The original song is hosted at www.guitaretab.com. Chordie works as a search engine and provides on-the-fly formatting. Chordie does not index songs against artists/composers will. To remove this song please click here.

This song is displayed as text-only. Transposing and tuning is only available for chordpro-songs.

Login - add to songbook

Rating click stars to rate

Layout
Accuracy

SHARE PAGE  




You need to log in to post comments