Guitar Tabs, Chords and Lyrics


Alles Was War  Die Toten Hosen

     [Am]           [C]           [Dm]         [E]            
e|-----------------------------------|
h|-5b6-5-----5b6-5------8-6--/--10-9-|
g|-----------------------------------|
D|-----------------------------------|
A|-----------------------------------|
E|-----------------------------------|



****1st Verse****

Es ist nicht [Am]einfach
Sich plötzlich wieder zu [C]sehen
Es schleudert unsere [Dm]Zeit
mit voller Wucht zur[E]ück
Und als ob w[Am]ir
es nicht besser wü[C]ssten
Spielen wir die Ver[Dm]missten
Und fallen über uns [E]her

Ein [F]Moment voller Hoffnung
Ein [G]Moment voller Glück
In dem wir [Am]nicht an gestern denken
Und was m[Dm]orgen vielleicht ist
Denn [F]dann wird es wieder weh tun
Es wär [E]nicht das erste Mal
Wir ve[Am]rsprechen uns nie wieder
Und g[G]lauben selbst nicht dran
****Chorus****

Vielen [C]Dank für [G]alles was mal [Am]war
Für [E]jeden guten [F]Tag
Nun sage [C]mir wie w[G]ar dein Leben ohne mich
Vielen [C]Daaaa[G]aaaa[Am]nk  [E]
[F]für alles [C]was mal [G]war

     [Am]           [C]           [Dm]         [E]            
e|-----------------------------------|
h|-5b6-5-----5b6-5------8-6----------|
g|------------------------------5-4--|
D|-----------------------------------|
A|-----------------------------------|
E|-----------------------------------|

****2nd Verse****

In unseren K[Am]öpfen
drehen sich Gedanken[C]spiele
Was wär gewesen [Dm]wenn
Wo würden wir heut s[E]tehen
Wir [Am]denken
an unsere alten [C]Ziele
Und suchen nach dem [Dm]Fehler
In unserem [E]System

[F]Warst du nach uns einsam
Oder [G]fühltest du dich frei
Und [Am]was hast du gemacht
In a[Dm]ll der Zwischenzeit
Es [F]ist nicht leicht das einzusehen
Doch [E]wahrscheinlich war es so
Was [Am]wir uns geben konnten
War [G]damals nicht genug
****Chorus****

Vielen [C]Dank für [G]alles was mal [Am]war
Für [E]jeden guten [F]Tag
Nun sage [C]mir wie w[G]ar dein Leben ohne mich
Vielen [C]Dank für [G]alles was mal [Am]war
Falls d[E]u's vergessen [F]hast
Das ist nicht [C]schlimm
Ich e[G]rinner mich für dich
An a[F]lles w[C]as mal [G]war        [F]   [C]   [G]

****Bridge****

Am meisten [Am]lieben wir die Dinge
Die [G]wir nicht haben können
Wir sollten [E]lernen zu verzichten
Doch wir [F]kriegen es nicht hin
Wir [Am]rufen Lebewohl
Winken [G]uns noch einmal zu
Dann [E]drehen wir uns um
Und [F]laufen dabei los [G]

****Chorus****

Vielen [C]Dank für [G]alles was mal [Am]war
Für [E]jeden guten [F]Tag
Nun sage [C]mir wie w[G]ar dein Leben ohne mich
Vielen [C]Dank für [G]alles was mal [Am]war
Falls d[E]u's vergessen [F]hast
Das ist nicht [C]schlimm
Ich er[G]inner mich für dich
Vielen [C]Daaaa[G]aaaa[Am]nk  [E]
[F]für alles [C]was mal [G]war

[F]   [C]   [G]                               
.................................
Leadguitar during last Chorus

|>not sure about this one
e|------------------|---------------|
h|------------------|---9---5-------|
g|------0---2---1---|-----------5---|
D|--2---------------|---------------|
A|------------------|---------------|
E|------------------|---------------|


|>not sure about this one
e|------------------|---------------|
h|------------------|---9--13--12---|
g|------0---2---1---|---------------|
D|--2---------------|---------------|
A|------------------|---------------|
E|------------------|---------------|


Have fun! =)

Important: The song above is NOT stored on the Chordie server. The original song is hosted at www.guitaretab.com. Chordie works as a search engine and provides on-the-fly formatting. Chordie does not index songs against artists'/composers' will. To remove this song please click here.

Text color:
Chord color:
Chord grids: 
Font size:    
Page size: 

Am C Dm E F G
variations - click chord images

Login - add to songbook

Transpose chords

Tuning

Rating click stars to rate

Layout
Accuracy

SHARE PAGE  




You need to log in to post comments