Guitar Tabs, Chords and Lyrics


Zehn Kleine Jgermeister  Die Toten Hosen

E |-------------------------------------------------|


H |-------------------------------------------------|


G |-------------------------------------------------|

D |------------------2-2----------------------2-----|
A |----------2-5---5-----5-5----------2-5---5---5---|
E |--3---3----------------------3---3---------------|
E |-------------------------------------------------|
H |-------------------------------------------------|
G |-------------------------------------------------|
D |------------------2-2------------------2---------|
A |----------2-5---5-----5-5----------2-5---5-2-----|
E |--3---3----------------------3---3-----------3---|
[Stropbe] (Barré-Griffe)
OffBeat:
1 + 2 + 3 + 4 + ...
E |:--3---3---3---3-|---3---3---3---3-|---3---3---3---3-|---5---5---3---3-:|
H |:--3---3---3---3-|---3---3---3---3-|---5---5---3---3-|---7---7---3---3-:|
G |:--4---4---4---4-|---4---4---4---4-|---5---5---4---4-|---7---7---4---4-:|
D |:-(5)-(5)-(5)-(5)|--(5)-(5)-(5)-(5)|--(5)-(5)-(5)-(5)|--(7)-(7)-(5)-(5):|
A |:----------------|-----------------|-----------------|-----------------:|
E |:----------------|-----------------|-----------------|-----------------:|


Zeh[G]n kleine Jägermeister rauchten einen Joint.
Den [C]einen hat es u[G]mgehaun, da w[D]aren's nur noch [G]neun.

Neun kleine Jägermeister wollten gerne erben.
Damit es was zu erben gab, musste einer sterben.

E |---3---3---3---3-|---3---3---3---3-|-3---------------|-----------------|
H |---3---3---3---3-|---3---3---3---3-|-5---------------|-----------------|
G |---4---4---4---4-|---4---4---4---4-|-5---------------|-7---------------|
D |--(5)-(5)-(5)-(5)|--(5)-(5)-(5)-(5)|(5)--------------|-7-------5-------|
A |-----------------|-----------------|-----------------|-5-------5-------|
E |-----------------|-----------------|-----------------|---------3-------|


Acht kleine Jägermeister fuhren gerne schnell.
Sieben fuhren nach Düsseldorf, einer fuhr nach Köln.


[Refrain] (PowerChords)
E[G]iner für alle, alle für e[D]inen.
[D]Wenn einer fort geht, wer wird denn gleich[G] weinen.
[G]Einmal trifft's jeden, ärger' dich nicht[C].
[C]So geht's im Leben: D[D]u oder i[G]ch.
[Stropbe] 
Sieben kleine Jägermeister warn beim Rendezvous.
Bei einem kam ganz unverhofft der Ehemann hinzu.
Sechs kleine Jägermeister wollten Steuern sparen.
einer wurde eingelocht, fünf durften nachbezahlen.
Fünf kleine Jägermeister wurden kontrolliert.
Ein Polizist nahm's zu genau, da war's sie noch zu viert.


[Refrain] 
Einer für alle, alle für einen.
Wenn einer fort geht, wer wird denn gleich weinen.
Einmal trifft's jeden, ärger' dich nicht.
So geht's im Leben: Du oder ich.
[C]Einmal muss j[G]eder gehen, auch w[D]enn dein Herz zerbr[G]ich[A]t. [B]   [C]
[C]Davon wird die Welt nicht u[G]ntergehen. Mensch, ä[D]rgere dich n[G]icht.


[Stropbe] 
Vier kleine Jägermeister bei der Bundeswehr:
Sie tranken um die Wette, den besten gibt's nicht mehr.
Drei kleine Jägermeister gingen ins Lokal.
Dort gab's Zwei Steaks mit Bohnen und eins mit Rinderwahn.
Zwei kleine Jägermeister baten um Asyl.
einer wurden angenommen, der andere war zuviel.


[Refrain] 
Einer für alle, alle für einen.
Wenn einer fort geht, wer wird denn gleich weinen.
Einmal trifft's jeden, ärger' dich nicht.
So geht's im Leben: Du oder ich.
Einmal muss jeder gehen, auch wenn dein Herz zerbricht.
Davon wird die Welt nicht untergehen. Mensch, ärgere dich nicht.


[Scbluss] (Barré-Griffe)
E[A]in kleiner Jägermeister war nicht gern allein,
drum l[D]ud er sich zum Osterfest neun neue Meister ei[A]n.
E-------------------5---
H---------5---------5---
G------6-----6------6---
D---7---------------7---
A-------------------7---
E-------------------5---				


Important: The song above is NOT stored on the Chordie server. The original song is hosted at www.guitaretab.com. Chordie works as a search engine and provides on-the-fly formatting. Chordie does not index songs against artists'/composers' will. To remove this song please click here.

Text color:
Chord color:
Chord grids: 
Font size:    
Page size: 

A B C D G
variations - click chord images

Login - add to songbook

Transpose chords

Tuning

Rating click stars to rate

Layout
Accuracy

SHARE PAGE  




You need to log in to post comments