Chordie logo

Singled Out   Diecast



DIECAST - SINGLED OUT
Tuning: C,G,C,f,a,d

intro/ chorus
|--------------------|
|--------------------| 
|---------7~---------|
|-7~--8~--7~--0~~~---| 
|-7~--8~--5~--0~~~---| 
|-7~--8~------0~~~---| 
                     
Pre-Verse: 
|------------------||-------------------|
|------------------||-------------------|
|------------------||-------------------|
|------------------||-------------------|
|-0--0-0-0-0-1-3-0-||-00-3-5--0-0-5-6---|
|-0--0000000-1-3-0-||-00-3-5--0-0-5-6---|
  *  *******     *    **      * *                     

Guitar 2 part
|-------------------------------------------|
|--7-7--/9-9-9-/10-10-10-/12^-12-121212^^---| 
|--7-7---x-x-x---x--x--x---x---x--x-x-x-----| 
|--5-5--/7-7-7--/8--8--8-/14^-14-141414^^---| 
|--5-5--------------------------------------|
|-------------------------------------------|
               
Verse:
 gtr. 1
|------------|-----------------------|
|------------|-----------------------|
|------------|-----------------------|
|-0--0-0---0-|-------------------3---|
|-0--0-0---0-|-0-00--------------1---|
|-0--0-0---0-|-0-00--3^----0--00-----|
pm   * *         **           **

Fill 1:
|-------------|
|-------------|
|-------------|
|-------------|
|-0--0-0-00---|
|-0--0-0-00---|
pm............

Breakdown 1:
|--------------------|
|--------------------|
|--------------------|
|--------------------|
|--0-00-000--5-6-5---|
|--0-00-000----------|
pm..........

Heavy Breakdown part:
|------------------------------|
|------------------------------|
|------------------------------|
|------------------------------|
|-0--0-0--0--0--12-13-12-------|
|-0--0-0--0--0--12-13-12-------|
pm   .    .

Fill 2:
|----------|
|----------|
|----------|

|-6-5-3-5--|
|-6-5-3-5--|
|-6-5-3-5--|


Important: The song above is NOT stored on the Chordie server. The original song is hosted at www.guitaretab.com. Chordie works as a search engine and provides on-the-fly formatting. Chordie does not index songs against artists/composers will. To remove this song please click here.

This song is displayed as text-only. Transposing and tuning is only available for chordpro-songs.

Login - add to songbook

Rating click stars to rate

Layout
Accuracy

SHARE PAGE  



You need to log in to post comments