Chordie logo


final Word Jam   Diecast



Band: Diecast
song: Pre-Final Word Jam

tabber: John Cukras
email: riffreaper@yahoo.com

tuning: Drop C

Riff 1:
D--------------------------------|
A--------------------------------|
F--------------------------------|
C-----7/9---5/7------------------|
G-----5/7---3/5-----7-9-7--------|
C-000-----0-----000-7-9-7 x's 12-|
pm...     .     ...

Riff 2:
D--------------------------|
A--------------------------|
F--------------------------|
C--------------------------|
G--------------------------|
C-77777777777-6-5-4  x's 8-|
pm........... . . .

Riff 3:
D-----------------------------------------|
A-----------------------------------------|
F-----------------------------------------|
C-----------------------------------------|
G-3-4-3-2-7-7--3-4-3-2-7-8-7-6-5-5--------|


Important: The song above is NOT stored on the Chordie server. The original song is hosted at www.guitaretab.com. Chordie works as a search engine and provides on-the-fly formatting. Chordie does not index songs against artists/composers will. To remove this song please click here.

This song is displayed as text-only. Transposing and tuning is only available for chordpro-songs.

Login - add to songbook

Rating click stars to rate

Layout
Accuracy

SHARE PAGE  




You need to log in to post comments