"yes"; ?> Do You Now by Dilana Smith - guitar chords, guitar tabs and lyrics - chordie

Do You Now

Dilana Smith

 DDsus4AAsus4BmBsus2AAsus4
Riff 2
 BmAG
Riff 3
 BmBsus2BmBsus2Asus4AG
Riff 4
 AGAG
Riff 5
 GCBm
Riff 6 (bij Bsus2 ook barreé optillen)
Bsus2 Bm Bsus2 Bm Bsus2 Bm enz. enz.

SOLO
Solo 1
------------------------------
-10-12-12-12-12-12-12-12-enz.-
------------------------------
------------------------------
------------------------------
------------------------------


Solo 2
---------------------------------------------------------------------
---------------------------------------10----12--12-12-12-12-12-12-10
----------------------11-11-9-9-9-7--11--11--------------------------
---4-2--------------2------------------------------------------------
-2-----5-2--2-5-2-5--------------------------------------------------
---------------------------------------------------------------------
---------------------------------------------------------------------
-10-8-7-8-7-8-7-8-7--------------------------------------------------
--------------------9-7----------------------------------------------
---------------------------------------------------------------------
---------------------------------------------------------------------
---------------------------------------------------------------------


Solo Tussenstukje
------------10--12--10----------------------------
---14--12---------------12--7---7--9--9-----------
-----------------------------------------7--------
--------------------------------------------------
--------------------------------------------------
--------------------------------------------------


Dilana Smith - Do you now
Intro: 1x riff 1

Riff 1 D Dsus4 A Asus4 Bm Bsus2 A Asus4
I want you right here, Akkoestisch
I want you right now
Why don't you come on over,
Why don't you do it now
I wanna do you now

Riff 2 Bm A G
Na, na, na, na, na, na, na, na, na, na, na 1x met redelijk veel gain
Na, na, na, na, na, na, na, na, na, na, na

Riff 3 Bm Bsus2 Bm Bsus2 Asus4 A G
So you called me up Akkoestisch
You said you're comin' round
So you stood me up
Yeah, you let me down
I felt like a fool, like a fool in love
But when it comes to you
I can't get enough

Riff 4 A G A G
You said I was pretty Aanslaan met redelijk veel gain
You said I drive you wild
àWhy did you have to leave me
In the middle of the night
Solo Tussenstukje
------------10--12--10----------------------------
---14--12---------------12--7---7--9--9-----------
-----------------------------------------7--------


Riff 1 D Dsus4 A Asus4 Bm Bsus2 A Asus4
I want you right here Standaard akkoord 2x ander 1x
I want you right now
Why don't you come on over
Why don't you do it now
I want you right here, right now
And just called me up
And do it now
I wanna do you now

Riff 5 G C Bm Redelijk veel gain

Riff 3 Bm Bsus2 Bm Bsus2 Asus4 A G
So I found out Akkoestisch
Who you really are
You're at the same table, the same restaurant
It's like I see myself
The way you make her laugh
Oh, I saw you kissin'
Just before you left

Riff 4 A G A G
Yeah, it made me cry Aanslaan met redelijk veel gain
To see you like that
You took my heart
And now I want it back

Riff 1 D Dsus4 A Asus4 Bm Bsus2 A Asus4
I want you right here Standaard akkoord 2x ander 1x
I want you right now
Why don't you come on over
Why don't you do it now
I want you right here
Yeah, right now
Why don't you hurried up
And do it now
I wanna do you now

Riff 5 G C Bm Redelijk veel gain

Riff 6 Bsus2 Bm Bsus2 Bm Bsus2 Bm enz.
I'm tired of being your weekend fuck Akkoestisch
I'm sick of being some chick
I'm done with makin' out on the phone
Yeah, I'm sick of being sick
You see I've got too much self respect Solo 1
To put up with your shit
That's why I follow my heart, baby
You just follow your dick

Solo 2 Riff 2 Bm A G
Na, na, na, na, na, na
Na, na, na, na, na, na

Riff 4 A G A G
Yeah, you fucked me up Redelijk veel gain
Right from the start
But you see the truth is
You never left my heart
(And that's the scary part)

Riff 1 D Dsus4 A Asus4 Bm Bsus2 A Asus4
I want you right here Standaard akkoord 2x ander 1x
I want you right now
Why don't you come on over
Why don't you do it now
I want you right here
Ooh, right now
Why don't you come on over here
And do it now

Riff 2 Bm A G
I want you right here 1x met redelijk veel gain
(Na, na, na, na, na, na)
I want you right now
(Na, na, na, na, na, na)
Why don't you come on over
(Na, na, na, na, na, na)
Why don't you do it now, now, now
I want you right here (right here)
I want you right now (right now)
You better make it fast
(Na, na, na, na, na, na)
I'm waiting now

I wanna do you now


A Asus4 Bm Bsus2 C D Dsus4 G
variations - click chord images
Transpose chords:
Tuning:
Cool service:
View: Size:
A  A  A
Rating:
Layout:
  • Currently 3.1/5 Stars.
  • 1
  • 2
  • 3
  • 4
  • 5
 
Accuracy:
  • Currently 3.3/5 Stars.
  • 1
  • 2
  • 3
  • 4
  • 5
 
click stars to rate
Chordie recommends:
Learn how to play guitar at JamPlay.com
Songbook:
Login to add this song to your songbook
Support the artist
Preview/buy this song
MSN Music
Why this non-profit ad?

 
login to add comments/video/corrections