Guitar Tabs, Chords and Lyrics


Babys Got A New Dress  Dime Store Prophets

Sal[Dbm]vatio[A]n in[Dbm] cotto[A]n,
You[Dbm]'ve n[A]ever looked this good be[E]fore.
Raise your chin child, guilt is not my style.
I'm the one you've been looking for.


A chemical breakfast, and a liquid lunch
Let me be your addiction.
Said he'd love you all night long,
but in the morning he put his pants on and he was gone.
He left you naked.
I'll never leave.


CHORUS:
I don't love you for your yeste[E]rday's,
I[A]'ll meet you just right where you [E]are.
I[A] don't care what kind of clothes y[E]ou wore.
A[A]ngels sing and I confess, hall[D]elujah
B[A]aby's got a new dress.


FILL2 (listed below)

I watched you dancing in the arms of another,
Remember, I am the jealous lover.
White looks fine on you.
It cost me a life wages just to give it to you.
My love is truth.


CHORUS

[E]Who loves you b[D]aby[A],
[E]I do

Solo (too much to tab, sorry)


FILL1:
e|-------------------------------------------------|
B|-------------------------------------------------|
G|-------9--------------------------9-11-11-11-9---|
D|--9h11------11-9---7-9-7-7-6---------------------|
A|-----------------------------7-------------------|
E|-------------------------------------------------|
e|-------------------------------------------------|
B|--10-12-10-9-10-9--------------------------------|
G|------------------9-11-9---------8-9----8-9-11---|
D|----------------------------9h11---------------9-|
A|-------------------------------------------------|
E|-------------------------------------------------|
e|-----------------(12)--------(7)--| () indicate
B|--12-10-9------------(12)---------|    to play
G|----------11-9--------------------|    the harmonic
D|----------------------------------|
A|----------------------------------|
E|----------------------------------|



FILL2:
e|--12-14-14-14-12------------------------------------------------|
B|---------------------14-14-14/12-12-12-12/10-10-9-10-9----------|
G|--------------------------------------------------------9--11--9|
e|--------12------------|
B|-----------12-10-9----|
G|---8-9-------------9--|				


Important: The song above is NOT stored on the Chordie server. The original song is hosted at www.guitaretab.com. Chordie works as a search engine and provides on-the-fly formatting. Chordie does not index songs against artists'/composers' will. To remove this song please click here.

Text color:
Chord color:
Chord grids: 
Font size:    
Page size: 

A D Dbm E
variations - click chord images

Login - add to songbook

Transpose chords

Tuning

Rating click stars to rate

Layout
Accuracy

SHARE PAGE  




You need to log in to post comments