Guitar Tabs, Chords and Lyrics


Daddys Gun  Dime Store Prophets

-------------------------------------------------------



-------------------------------------------------------

e|----------------------------------|
B|------3------3--------3------3----|
G|--------0------0--------0------0--|
D|----0---------------0-------------|
A|----------------------------------|
E|--3--------3------2--------2------|
e|----------------------------------|
B|------3------3--------3------3----|
G|--------0------0--------0------0--|
D|----0---------------0-------------|
A|--2--------2------3--------3------|
E|----------------------------------|
S[G]ay good-bye to older [C]days
maybe now you[D]r heart can stay.
You're g[Em]iving up, you've ha[C]d enough,
you're[G] digging for dadd[D]y's gun.
Children run out the door to play
in daffodils and sun.
You say "who need them anyway"
and I just can't say enough.
Now I'm praying for revolution rising up in your heart,
but you say you never knew me shut the shades and cry in the dark.


CHORUS

[Em]     [C]    [G]    [D]                        
Solo

[Em]Shine[C] on.[G]..  [D]

CHORUS (x2)


Now Shine on,
you will shine like the brightest star
mount up with wings as eagles and shine on.

Important: The song above is NOT stored on the Chordie server. The original song is hosted at www.guitaretab.com. Chordie works as a search engine and provides on-the-fly formatting. Chordie does not index songs against artists'/composers' will. To remove this song please click here.

Text color:
Chord color:
Chord grids: 
Font size:    
Page size: 

C D Em G
variations - click chord images

Login - add to songbook

Transpose chords

Tuning

Rating click stars to rate

Layout
Accuracy

SHARE PAGE  




You need to log in to post comments