Chordie logo

Glittertind   Dimmu Borgir



Band:  Dimmu Borgir
Album: For All Tid
Song:  Glittertind

Copyright: (No Colour Records, Nuclear Blast Records), 1994
Version 1.0 - 1994
Version 1.1 - 1997

Transcribed by:     Chayns of Demolishment
E-mayl:             infernal_purge@hotmail.com

Note:
Tuning is custom E

e|
B|
G|
D|
A|
E|

=  let ring
h  hammer on
p  pull off
/  slide up
\  slide down
.  mute note

Riff 1:
|---------------------------------------|
|---------------------------------------|
|---------------------------------------|
|--------222222-------------333333-2222-|
|-333333--------3333-555555-------------|
|---------------------------------------|

Riff 2:
|-----------------------------------------|
|-----------------------------------------|
|-------------------7--7--7-4-5=-5-4--5-4-|
|-2=----2-4-5=------7--7--7-4-5=-5-4--5-4-|
|-2=----2-4-5=------5--5--5-2-3=-3-2--3-2-|
|-0=----0-2-3=----------------------------|

Riff 3:
|-----------------------------------------------------------------------|
|-----------------------------------------------------------------------|
|-----------------------------------------------------------------------|
|-------------------22222222-33333333-----------------------------------|
|-44444444-55555555------------------------------------3333333333333333-|
|-------------------------------------1111111111111111------------------|

Riff 4:
|-------------------|
|-------------------|
|-------------------|
|-7=--7=-7\3-3-3/5=-|
|-5=--5=-7\3-3-3/5=-|
|-5=--5=-5\1-1-1/3=-|

Solo over riff 4:
|--------------------------|              |--------------------------|
|--------------------------|              |---------------3----------|
|--------------------------|              |-2=--2=-2-4-5=---5-4=-5-4-|
|-0=--0=-0-2-3=-5-3-2=-3-2-| 4 x and then |--------------------------| 4 x
|--------------------------|              |--------------------------|
|--------------------------|              |--------------------------|

Play this whole thing twice.

Then go to the next riff

Riff 5:
Right Box Guitar
|---------------|
|---------------|
|---------------|
|---------------|
|-000000-888887-|
|---------------|

Left Box Guitar
|---------------|
|---------------|
|---------------|
|-7=-----7=-----|
|---------------|
|---------------|

Riff 6:
Right Box guitar
|---------------|
|---------------|
|---------------|

|---------------|
|-000000-888887-|
|---------------|

Left Box Guitar solo
|------------------------------------------|
|------------------------------------------|
|--------7---------------------------------|
|-7-9-10---10-9-10-9-7----7----7=----7=----| twice
|----------------------10---10-------------|
|------------------------------------------|

|-------------------------------------------------------------------|
|-------------------------------------------------------------------|
|-------------------------------------------------------------------|
|-------------------------------------------------------------7=----|
|-7=---h8-8=-10p8p7-7=---h8-8=-10p8p7-7=---h8-8=-10p8p7-7=----------|
|-------------------------------------------------------------------|

Riff 5 again four times

Riff 2 six times
ending on the sixth time this way:
|---------------------------------|
|---------------------------------|
|-------------------7--7--7-4-5=.-|
|-2=----2-4-5=------7--7--7-4-5=.-|
|-2=----2-4-5=------5--5--5-2-3=.-|


Important: The song above is NOT stored on the Chordie server. The original song is hosted at www.guitaretab.com. Chordie works as a search engine and provides on-the-fly formatting. Chordie does not index songs against artists/composers will. To remove this song please click here.

This song is displayed as text-only. Transposing and tuning is only available for chordpro-songs.

Login - add to songbook

Rating click stars to rate

Layout
Accuracy

SHARE PAGE  

You need to log in to post comments