Feel Like Going Home

Dinosaur Jr

 CGDGD
 And I feel like going home      

 GDEm
 Lord I tried to see it through
 CGD
 But it was too much for me
 GDEm
 And now I'm coming home to you
 CGDGD
 And I feel like going home     

 GDEm
 Cloudy skies are rolling in
 CGD
 And not a friend around to help me
 GDEm
 From all the places I have been
 CGDGD
 And I feel like going home      

 GDEm
 Lord I feel like going home

 CGD
 I tried and I failed and I'm tired and weary

 GDEm
 Everything I ever done was wrong

 CGDGD
 And I feel like going home    
   -------------------


Fills 1 & 2 to be played whenever you fancy it really

Fill 1

e|--7 -------------------|
B|--8p7--7h8-------------|
G|--9 -------9-----------|
D|--9 -9------9----------|
A|--7 ----------7--------|
E|----------------10 7 8-|


Fill 2

e|--2----------------------|
B|--3----------------------|
G|--2----------------------|
D|--0--2--4----------------|
A|--x----------------------|
E|--x----------------------|


And so it goes...


C D Em G
variations - click chord images
Transpose chords:
Tuning:
Cool service:
View: Size:
A  A  A
Rating:
Layout:
  • Currently 2.9/5 Stars.
  • 1
  • 2
  • 3
  • 4
  • 5
 
Accuracy:
  • Currently 2.8/5 Stars.
  • 1
  • 2
  • 3
  • 4
  • 5
 
click stars to rate
Chordie recommends:
Get acoustic guitar lessons and electric guitar lessons at JamPlay.com
Songbook:
Login to add this song to your songbook
Support the artist
Preview/buy this song
MSN Music
Why this non-profit ad?

 
login to add comments/video/corrections