eToCache5 = ""; ?> Wagon by Dinosaur Jr - guitar chords, guitar tabs and lyrics - chordie

Wagon

Dinosaur Jr

 C
 We're all nuts so who helps who?

 G
Some help when no one's got a clue

FILL

 AmCGAsus2
 Baby why don't we, Baby why don't we?  

VERSE 2

There's a place I'd like to go
When you get there then I'll know
There's a place I know you've been
It's the wagon, get on in

FILL x2

 AmCGAsus2
 Baby why don't we, Baby why don't we?  

CHORUS

 BmCBmC
 You won't see me, you won't see me

 GAsus2G
 There you are and here I stand

 Asus2BmCBmC
Tryin' to make you feel my hand, you won't see me, you won't see me

 GAsus2G
 Ring the door bell in your mind

 Asus2BmCBmC
But it's locked from the outside, you won't see me, you won't see me

 GAsus2G
 You don't live there any way

 Asus2BmCBmC
But I knock on it all day, you won't see me, you won't see me

VERSE 3

 DBC
 There's a place I go, but your not there and I'm supposed to know

 DBC
 How to get to where your gonna be, but you don't even know

 DBC
 So I'm flakin' while your shakin' it with every step you find

 DBC
 Without a mind, without a spine, but is it that you want to find

(solo over chorus riff)

VERSE 4 (Verse 3 riff)

There's a place I go, but your not there and I'm supposed to know
How to get to where your gonna be, but you don't even know
so I'm flailin' while your sailin' off without a course in mind
Without a mind, without a dog, but is it that you want to find

 GAsus2GAsus2
Rpt VERSE2

Rpt FILL

Rpt CHORUS

 C
***********************************************************
Fig. 1:
E:--------0--------0-----------0--------0--------------------|
B:--------1--1--3-----3--0--3--3--1--3-----3--0--3--3--------|
G:--------0--------------------0-----------------------------|
D:--------2--------------------2-----------------------------|
A:--------3--------------------3-----------------------------|
E:-----------------------------------------------------------|


Fig. 2
E:-----------------------------------------------------------|
B:-----------------------------------------------------------|
G:-------------------------5-\4--4----5-\4--4----------------|
D:---5--5--5----5--5--5--------------------------------------|
A:---5--5--5----5--5--5----3-\2--2----3-\2--2----------------|
E:---3--3--3----3--3--3--------------------------------------|


Fig. 3 (Alternative to fig 2)
e:---3--3--3---3--3--3----0-0--0------0-0--0-----------------|
B:---3--3--3---3--3--3----1-1--1------1-1--1-----------------|
G:---0--0--0---0--0--0----0-0--0------0-0--0-----------------|
D:---0--0--2---2--2--2----2-2--2------2-2--2-----------------|
A:---2--2--2---2--2--2----3-2--0------3-2--0-----------------|
E:---3--3--3---3--3--3---------------------------------------|


And so it goes...


Am Asus2 B Bm C D G
variations - click chord images
Transpose chords:
Tuning:
Cool service:
View: Size:
A  A  A
Rating:
Layout:
  • Currently 2.9/5 Stars.
  • 1
  • 2
  • 3
  • 4
  • 5
 
Accuracy:
  • Currently 3.3/5 Stars.
  • 1
  • 2
  • 3
  • 4
  • 5
 
click stars to rate
Chordie recommends:
Learn to play this song & others via video guitar lessons at JamPlay.com
Songbook:
Login to add this song to your songbook
Support the artist
Preview/buy this song
MSN Music
Why this non-profit ad?

 
login to add comments/video/corrections