Thats What Friends Are For

Dionne Warwick

-----------------------------------------------------------------------

-----------------------------------------------------------------------

 CG/BF/AEm7Am7Dm7C
e|----------------|-------0-1-0----|----------------|------1-0-----|--|
B|--0-1-----0-1---|--0-1--------1--|------0-1-------|-----1----1---|--|
G|0-------0-------|0--------------2|0-------------0-|----2-------2-|0-|
D|----------------|----------------|----------------|3--3----------|--|
A|----------------|----------------|----------------|--------------|--|
E|----------------|----------------|----------------|--------------|--|

(And I)

 CEm7Am7Dm7Dm7Bm7b5
And I never thought I'd feel this way, and as far as I'm concerned
 E7susE7Am7FDm7/G
I'm glad I got the chance to say that I do believe I love you
 CEm7Am7Dm7Dm7Bm7b5
And if  I should ever go away, well then close your eyes and try
 E7susE7Am7FDm7/G
To feel the way we do today and then if you can remember

 CEm7/BF/ABm9/GbEm7Am7
  Keep smilin' keep shinin', knowing you can always count on me for sure
 FDm7/G
 That's what friends are for
 CEm7/BBb6A7Dm7b5
  For good times and bad times, I'll be on your side forever more
 G7sus
 That's what friends are for..

(for...) C Em7 Am7 Dm7 Well you...
e|----3-1---------|-----------------0-|1---------------|
B|--------1-------|-----------3-1-----|----------------|
G|----------0-----|0-------0----------|----------------|
D|------------2-3-|----2-3------------|----------------|
A|----------------|-------------------|----------------|
E|----------------|-------------------|----------------|


 Dm7Bm7b5
(Well you) came and opened me
 E7susE7Am7FDm7/G
And now there's so much more I see, and so by the way I thank you    C            Em7
 Am7Dm7
And then for the times when we're apart
 Dm7Bm7b5
Well then close your eyes and know
 E7susE7Am7FDm7/G
These words are coming from my heart, and then if you can remember

 CEm7/BF/ABm9/GbEm7Am7
  Keep smilin' keep shinin', knowing you can always count on me for sure
 FDm7/G
 That's what friends are for
 CEm7/BBb6A7Dm7b5
  In good times and bad times, I'll be on your side forever more
 G7sus
 That's what friends are for, whoa

(same chords)
Keep smilin' keep shinin', knowing you can always count on me for sure
That's what friends are for
For good times and bad times, I'll be on your side forever more
That's what friends are for

(same chords)
Keep smilin' keep shinin', knowing you can always count on me,
Oh for sure, cause I tell you That's what friends are for
 CEm7/BBb6A7Dm7b5
 For good times and the bad times, I'll be on your side forever more
 G7sus
 That's what friends are for, That's what friends are for, uh-huh, yeah
(spoken)
OUTRO:
 CG/BF/AEm7Am7Dm7
 Ooo..        On me for sure, count on me for sure, count on me for sure
 C
That's what friends are for
 CEm7/B
 Keep smilin', keep shinin'...
(Fade out)

OUTRO (occurs simultaneously with the above lyrics):
 CG/BF/AEm7Am7Dm7
e|----------------|-------0-1-0----|----------------|------1-0-----|--|
B|--0-1-----0-1---|--0-1--------1--|------0-1-------|-----1----1---|--|
G|0-------0-------|0--------------2|0-------------0-|----2-------2-|0-|
D|----------------|----------------|----------------|3--3----------|--|
A|----------------|----------------|----------------|--------------|--|
E|----------------|----------------|----------------|--------------|--|


CHORDS:
C: x32010
Dm7: xx0211
Dm7/G: 300211
Dm7b5: xx0111
E7: 020100
E7sus: 020200
Em7: 020000
F: 133211
F/A: x03211
G/B: X20033
A7: x02020
Am7: x02010
Bb6: x13333
Bm7b5: x2323x
Bm9/Gb: 220222

| / slide up
| \ slide down
| h hammer-on
| p pull-off
| ~ vibrato
| + harmonic
| x Mute note
=======================================================================


A7 Am7 Bb6 Bm7b5 C Dm7 Dm7/G Dm7b5 E7 E7sus Em7 Em7/B F G/B G7sus
variations - click chord images
Transpose chords:
Tuning:
Cool service:
View: Size:
A  A  A
Rating:
Layout:
  • Currently 2.8/5 Stars.
  • 1
  • 2
  • 3
  • 4
  • 5
 
Accuracy:
  • Currently 4.5/5 Stars.
  • 1
  • 2
  • 3
  • 4
  • 5
 
click stars to rate
Chordie recommends:
Learn to play guitar with video-based, online guitar lessons at JamPlay.com
Songbook:
Login to add this song to your songbook
Support the artist
Preview/buy this song
MSN Music
Why this non-profit ad?

 
login to add comments/video/corrections