Guitar Tabs, Chords and Lyrics


So Far Away   Dire Straits



So Far Away- Dire Straights

I hope this tab comes out Okay because the last time
I submitted a tab the right end of the page was kind of
cut out. This is one of my favorites from Dire Straights.
I suggest you listen to the song and play, it'll sound nice
if you tune your guitar to the song.

Key:
/=slide
^hammer on/ pull off

Intro:

Guitar 1
----------------------------------------------------------------|
----------------------------------------------------------------|
----------------------------------------------------------------|
--------4-----4---------2-----2---------------------------------|
--0-2-2-2-2-2-2-2-2-0-0-0-0-0-0-0-0-----2-----2-----2---------0-|
------------------------------------0-0-0-0-0-0-0-0-0-0-0-4-4---|rpt

on repeat:
Guitar 2
---------------------7--7-------------5--5-7----7-----------------|
--2/----/9--9-10-----7--7-9-----------5--5-7----9-----------------|
--2/----/9--9-9------8--8-9-----------6--6-8----9-----------------|
--2/----/9--9-11-----9--9-9-----------7--7-9----9-----------------|
------------------------------------------------7-----------------|
------------------------------------------------------------------|

Here's that ringy sound in the back after above:

----7-----7-----7-------9-----7-----7----7-------7-----7-----------|
------9-----9-----9-------7-----7-----7----7-------9-----9---------|
-------------------------------------------------------------------|
----------------------9--------------------------------------------|
--7-----7-----7-----7--------------------------7-----7-------------|
----------------------------7-----7----7-----7---------------------|cont>

----7-----7----7-------|
------9-----10---10-9--|
-----------------------|
-----------------------|
--7-----7--------------|
-----------------------|

verse:

-------------------------------------------------------------------|
-------------------------------------------------------------------|
-------------------------------------------------------------------|
----------4-----4-------4-----4---4--------------------------------|
--0-2-2-2-2-2-2-2-2-2-2-2-2-2-2-2-2-2-----2-----2-------------0----|
------------------------------------0-0-0-0-0-0-0-0-0--0-0-4-4-----|rpt

Chorus:

--------------------------------------------------------------|
-------------4---------------------------4--------------------|
------4---------------4-----------4--------4--4-2--2----------|
----2------6--------4----2------2------6---4--4-2--2-2--------|
--0------4--------2------2----0------4-----2--2-0--0-2--------|
-------------------------0---------------------------0--------|

That's basically the whole song, other than fills and stuff.


Important: The song above is NOT stored on the Chordie server. The original song is hosted at www.guitaretab.com. Chordie works as a search engine and provides on-the-fly formatting. Chordie does not index songs against artists/composers will. To remove this song please click here.

This song is displayed as text-only. Transposing and tuning is only available for chordpro-songs.

Login - add to songbook

Rating click stars to rate

Layout
Accuracy

SHARE PAGE  




You need to log in to post comments