""; ?> insertsongandartist - guitar chords, guitar tabs and lyrics - chordie

Rhizome

Disavowed

                             --- DISAVOWED ---


TABULATURE LEGEND:
" - tremolo h - hammer on
~ - vibrato \ - slide down
p - pull off / - slide down
tr - tremolo picking ^ - pinch harmonics
= - sustained note b - bend string
p.m. - palm muting t - tapping

 D, G, C, F, A, D
Tuning is D  

 Riff 1 (x2
-|-----------------|----------------------|
-|-----------------|----------------------|
-|-----------------|----------------------|
-|-----------------|-----------7p5-8p5----|
-|---7-------5-8-7-|---7---------------5~-|
-|-0---0-6-0-------|-0---0-6-5------------|

tr.......................................

 Riff 2 (x2
-|---------------------------------|---------------------------------|
-|---------------------------------|---------------------------------|
-|---------------------------------|---------------------------------|
-|---------------------------------|-----------------5h4-------------|
-|-----3h4-----3h4-----3h4-----4h5-|-----3h4-----3h4-------------3h4-|
-|-0-2-----0-2-----0-2-----0-3-----|-0-2-----0-2---------6p5-0-2-----|

. . . . . . . . . . . . . .

 RIFF 1RIFF 1 (1 BAR ONLY
  +  

 Ending:
-|-----------------|
-|-----------------|
-|-----------------|
-|-----------------|
-|---7-----------3-|
-|-0---0-6-5-5---1-|

tr............ .

 Riff 3 (x2
-|-----------------|-----------------|
-|-----------------|-----------------|
-|-----------------|-----------------|
-|-----------3-----|-----------------|
-|---2---------2-3-|---2-------3-----|
-|-1---1-2-1-------|-1---1-2-2---2-3-|

tr..................................

 Riff 4 (x2
-|-----------------|-----------------|
-|-----------------|-----------------|
-|-----------------|-----------------|
-|-----------------|-----------------|
-|-3-------4-------|-3---------3-4---|
-|---1-4-3---2-5-4-|---1-4-3-2-----2-|

tr..................................

 RIFF 3 (x2

 Riff 5 (x5
-|-----------------|-----------------|
-|-----------------|-----------------|
-|-----------------|-----------------|
-|---4-5---4-5-----|---4-5---4-5-6-5-|
-|-3-2-3-3-2-3-3-2-|-3-2-3-3-2-3-4-3-|
-|-1-----1-----1-0-|-1-----1---------|

. . . . . . . . . . . . . . . .

 Riff 6 (x4
-|---------------|-----------------|
-|---------------|-----------------|
-|---------------|-----------------|
-|----------2"3"-|--------2"3"6"5"-|
-|---------------|-----------------|
-|-0"....-1"-----|-0"..-1"---------|


 RIFF 5 (x2RIFF 6RIFF 6 (1 BAR ONLY

 Outro
-|------------------|
-|------------------|
-|------------------|
-|------------------|
-|---4-3-0-3--------|
-|-0---------5-4----|

tr..................

 Riff 7 (x2
-|-------------------------------|----------------------------------|
-|-------------------------------|----------------------------------|
-|-------------------------------|----------------------------------|
-|-------2-3---------2-3-2-3-6-5-|-------2-3------------------------|
-|-------------------------------|-------------------4-3-0-3--------|
-|-1-0-1-----0-1-0-1-------------|-1-0-1-----0-1-0-0---------5-4----|

tr.................................................................

 RIFF 1 (x2RIFF 2 (x2RIFF 1RIFF 1 (1 barRIFF 5 (1 bar

 Riff 8 (x3
-|------------------|------------------|
-|------------------|------------------|
-|------------------|------------------|
-|------------------|------------------|
-|-3------3---3/4-3-|-3------3---3-----|
-|-1-00-0-1-0-1/2-1-|-1-00-0-1-0-1-2~~-|

.. . . .. . .

 RIFF 8 (1 BAR ONLY

 BASS OUTRO:
-|--------------------------------|
-|-----------------5p4------------|
-|-----3h4-----3h4------------3h4-|
-|-0-2-----0-2--------6p5-0-2-----|


 RIFF 2 (x2RIFF 5 (x2RIFF 8 (x2RIFF 8 1 bar only
    ]
 outroRIFF 7 (x2RIFF 3 (x2RIFF 4 (x2RIFF 3

 Outro 2
-|-----------------|------------------|
-|-----------------|------------------|
-|-----------------|------------------|
-|-----------3-----|---5p4------------|
-|-------2-----2-3-|-3---------4-5--2-|
-|-1-2-1---1-------|-1-----6p5-2-3--0-|

tr................ . . . .

 RIFF 8 (x3
 RIFF 8 1 bar only
 ]

 Final Ending:
-|--------------------|
-|--------------------|
-|--------------------|
-|---5p4--------------|
-|-3---------4-5--3-2-|
-|-1-----6p5-2-3--1-0-|

. . . . .

END OF SONG