Chordie logo
content loaded from cache

Sin Hablar  Disidente

-------------------------------------------------------------------------------



-------------------------------------------------------------------------------







D#|---------------------------------|


A#|---------------------------------|


F#|-----9--------10----------9---9--|


C#|---9---9---10----10--------------|


G#|-7-------8-------------10---10---|


C#|--------------------10-----------|


[D#]Eres men[E]os que el [B]mar
[D#]pues no [E]puedes rel[B]acionar
[D#]Siente q[E]ue va caye[B]ndo
[D#]Pero nun[E]ca termina[B] de caer

[D#]Aho[E]ra nada[B] es igual
[D#]Aho[E]ra nada[B] es igual

[D#]Ha vuelt[E]o a record[B]ar
[D#]Se esta [E]dejando es[B]capar
[D#]Siente q[E]ue va subi[B]endo
[D#]Pero nun[E]ca empieza[B] a subir

[D#]Aho[E]ra nada[B] es igual
[D#]Aho[E]ra nada[B] es igual
[D#]Aho[E]ra nada[B] es igual
[D#]Aho[E]ra nada[B] es igual

[E5]Y lo [B5]sé,  [F#5]
[G#5]no puede hablar
[E5]y lo [B5]sé,
sin[F#5] hablar,
sin[G#5] hablar

D#|-------------------------------------|
A#|-------------------------------------|
F#|-------------------------------------|
C#|-2-0-2-0--2-0-2-0--2-0-2-0--2-0-0-3--|
G#|-2-0-2-0--2-0-2-0--2-0-2-0--2-0-0-3--|
C#|-2-0-2-0--2-0-2-0--2-0-2-0--2-0-0-3--|


[D#]Empieza [E]a pregunta[B]rse
[D#]Más fáci[E]l no conte[B]star
[D#]Siente q[E]ue va sonr[B]iendo
[D#]Pero nun[E]ca empieza[B] a sonreír

[D#]Aho[E]ra nada[B] es igual
[D#]Aho[E]ra nada[B] es igual
[D#]Aho[E]ra nada[B] es igual
[D#]Aho[E]ra nada[B] es igual

[E5]Y lo [B5]sé,  [F#5]
[G#5]no puede hablar
[E5]y lo [B5]sé,
sin[F#5] hablar,
sin[G#5] hablar

D#|----------------------------------------------------------|
A#|----------------------------------------------------------|
F#|----------------------------------------------------------|
C#|----------------------------------------------------------|
G#|-10^-7-10^-7-10^-12^/14^-15^-10^-7-10^-7-10^-12^/14^-15^--|
C#|----------------------------------------------------------|
D#|--------------------------------|
A#|--------------------------------|
F#|--------------------------------|
C#|-------------------------10-10--|
G#|-10^-12^p10^-12^p10^h12^--------|
C#|--------------------------------|
D#|----------------------------------------------|
A#|----------------------------------------------|
F#|-------------------------------------5h7p5----|
C#|-------5h7p5-------5h7p5-------5h7p5-------5--|
G#|-7p5h7-------7p5h7-------7p5h7----------------|
C#|----------------------------------------------|


[D#]Aho[E]ra nada[B] es igual
[D#]Aho[E]ra nada[B] es igual
[D#]Aho[E]ra nada[B] es igual
[D#]Aho[E]ra nada[B] es igual
Sin hab[E]lar

[B5]Despertar, navegar,
[A#5]en un ba[E]rco y sin hablar

D#|-----------------------|
A#|-----------------------|
F#|-----------------------|

C#|-10-10h12p10-10h12p10--|
G#|-----------------------|
C#|-----------------------|


| / slide up
| \ slide down
| h hammer-on
| p pull-off
| ~ vibrato
| + harmonic
| x Mute note
===============================================================================

Important: The song above is NOT stored on the Chordie server. The original song is hosted at www.guitaretab.com. Chordie works as a search engine and provides on-the-fly formatting. Chordie does not index songs against artists/composers will. To remove this song please click here.

A#5 B B5 D# E E5 F#5 G#5
variations - click chord images

Transpose chords

Tuning

Rating click stars to rate

Layout
Accuracy

SHARE PAGE  

You need to log in to post comments