Chordie logo


Skinfather   Dismember



			DISMEMBER - Skinfather
				Version 1.0

Transcribed by: Vincent

For Questions, Comments, Newest Version, or Corrections contact
 vincent: at gerbeoflife@aol.com

.  - palm mute          /  - slide up to
 \  - slide down to      ~  - vibrato
 h  - hammer on          b  - bend
 p  - pull off            Suffixes for bend
                          ph - pinch harmonic
                           f - full bend    h - half bend
*  - see comment           r - release      t - tap bend
X  - percussion mute       ~ - vibrato bend
@  - slight palm mute     () - Hold note until next note
" - Tremolo until next note
' - Slower Tremolo until next note

Tune Gtr to B ( but i'm sure that dismember are tuned Bb)

Riff 1:
|----------------------------------------------|
|----------------------------------------------|
|----------------------------------------------|
|-----88--7777881010----8888-------------------|
|-6666--66----------6666----999988886688998888-|
|----------------------------------------------|

Riff 2:
|---------------------------------------|
|---------------------------------------|
|---------------------------------------|
|-----------------8---------------------|
|-3-6----9-8-9----6-8---------6-----8---|
|-1-4----7-6-7----6-6---6-6-7---7-6---7-|
                       pm-+

Riff 3:
|-----------------------------------------------------------------|
|-----------------------------------------------------------------|
|-----------------------------------------------------------------|
|-----------------------------------------------------------------|
|-8--------------777777778877-----5-------------------------------|
|-666666666669999------------9988-3333333333366664444444466666666-|
  \------------2X---------------/ \------------2X---------------/

Riff 4:
|----------------------------------------------------------------------------------------------------------------------|
|----------------------------------------------------------------------------------------------------------------------|
|-------------------------10101010-------------------------------------------------------------------------------------|
|---------1010101011111111--------111111111010101010101010--------------------------------------------1010101010101010-|
|-----8888----------------------------------------------------1111111110101010--------1010101011111111-----------------|
|-0000----------------------------------------------------0000----------------11111111---------------------------------|

Fill :
|------|
|------|
|------|
|-8--8-|
|-6--6-|
|-6--6-|

Riff 5:
|--------------------------------------|
|--------------------------------------|
|--------------------------------------|
|-8--6--9-8-6-8-9-----8--6h8-9-8-6-8-9-|
|-6--6--7-6-4-6-7--6-------------------|
|-6-----7-6-4-6-7----------------------|

Riff 6: (killer riff)
|---|-----------------------------------------------------------|
|---|-----------------------------------------------------------|
|---|-----------------------------------------------------------|
|---|-----------------------------------------------------4-3-4-|
|-3-|-----6-8-9-3-------6-8-9-3-------6-8-9-3-------6-8-9-2-1-2-|
|-1-|-----4-6-7-1-------4-6-7-1-------4-6-7-1-------4-6-7-------|

Riff 7: (With solo)

Totally unknown

Riff 8: (end solo)
|---------------------------------|
|---------------------------------|
|---------------------------------|
|---------------------------------|
|-------------------------6---9-8-|
|-0000000000000000000000--4---7-6-|

Riff 9:
|----------------------------------|
|----------------------------------|
|----------------------------------|
|-------------------------9-----11-|
|-------------------------7---9-9--|
|-0000000000000000000000--7---7-9--|

Riff 10:
|--------------------------------------------|
|--------------------------------------------|
|--------------------------------------------|
|---------44---------------------------------|
|-11111144--55442244444422445555555522225555-|



Important: The song above is NOT stored on the Chordie server. The original song is hosted at www.guitaretab.com. Chordie works as a search engine and provides on-the-fly formatting. Chordie does not index songs against artists/composers will. To remove this song please click here.

This song is displayed as text-only. Transposing and tuning is only available for chordpro-songs.

Login - add to songbook

Rating click stars to rate

Layout
Accuracy

SHARE PAGE  




You need to log in to post comments