Chordie logo


Time Served   Dispatch



(/) Slide Up  () Slide Down  (h) Hammer On  (p) Pull Off  (b) Bend (r) Release (v) Vibrato
Intro:
E|-------------------------------------------------------|
B|-------------------------------------------------------|
G|-------------------------------------------------------|
D|-5p0-----5-5p0-----7-5---5p0-----5-5p0-----------------|
A|-----5h7-------5h7-----7-----5-7-------5h7p5---5-------|
E|---------------------------------------------7---7-6-5-|

E|---------------------------------------------------------|
B|---------------------------------------------------------|
G|---------------------------------------------------------|
D|-5p0-----5-5p0-----7-5---5p0-----5-5p0-------------------|
A|-----5h7-------5h7-----7-----5h7-------5-7-5-------5-7---|
E|---------------------------------------------7-5-7-------|
Verse:
E|-7-7-7--7-|-7-7-7--7-|-7-7-7--7-|-7-7-7--7-|-7-7-7--7-|-7-7-7--7-|-5-5-5--5-|-7-7-7--7-|
B|-8-8-8--8-|-7-7-7--7-|-8-8-8--8-|-7-7-7--7-|-8-8-8--8-|-7-7-7--7-|-5-5-5--5-|-7-7-7--7-|
G|-7-7-7--7-|-7-7-7--7-|-7-7-7--7-|-7-7-7--7-|-7-7-7--7-|-7-7-7--7-|-5-5-5--5-|-7-7-7--7-|x2
D|-9-9-9--9-|-7-7-7--7-|-9-9-9--9-|-7-7-7--7-|-9-9-9--9-|-7-7-7--7-|-5-5-5--5-|-7-7-7--7-|
A|-7-7-7--7-|-5-5-5--5-|-7-7-7--7-|-5-5-5--5-|-7-7-7--7-|-5-5-5--5-|-3-3-3--3-|-5-5-5--5-|
E|----------|----------|----------|----------|----------|----------|----------|----------|
Chorus:
E|---------------------------------|-----------------------------------|
B|---------------------------------|-----------------------------------|
G|---------------------------------|-----------------------------------|x2
D|-------9-------9-7-------7-4-5-2-|-------9-------9-7-------7-4-5-7---|
A|-7-7-7---7-7-7-----5-5-5---------|-7-7-7---7-7-7-----5-5-5-----------|
E|---------------------------------|-----------------------------------|
Verse

Chorus

Bridge:
E|-7-7-7--7-|-7-7-7--7-|-7-7-7--7-|-7-7-7--7-|
B|-8-8-8--8-|-8-8-8--8-|-8-8-8--8-|-7-7-7--7-|
G|-7-7-7--7-|-7-7-7--7-|-7-7-7--7-|-7-7-7--7-|
D|-9-9-9--9-|-9-9-9--9-|-9-9-9--9-|-7-7-7--7-|
A|-7-7-7--7-|-7-7-7--7-|-7-7-7--7-|-5-5-5--5-|
E|----------|----------|----------|----------|
Verse

Outro:
E|---------------------------------------------------------|
B|---------------------------------------------------------|
G|---------------------------------------------------------|
D|-5p0-----5-5p0-----7-5---5p0-----5-5p0-------------------|
A|-----5h7-------5h7-----7-----5h7-------5h7p5---5---------|
E|---------------------------------------------7---7-6-5---|

E|-------------------------------------------------------------------------------------|
B|-------------------------------------------------------------------------------------|
G|-------------------------------------------------------------------------------------|
D|-5p0-----5-5p0-----7-5---------------------------------------5p0-----5-5p0-----7-5---|
A|-----5h7-------5h7-----6--6--6-6-6-6-6-6-6-6-6-6-6-6-6-6-6-6-----5h7-------5h7-----7-|


Important: The song above is NOT stored on the Chordie server. The original song is hosted at www.guitaretab.com. Chordie works as a search engine and provides on-the-fly formatting. Chordie does not index songs against artists/composers will. To remove this song please click here.

This song is displayed as text-only. Transposing and tuning is only available for chordpro-songs.

Login - add to songbook

Rating click stars to rate

Layout
Accuracy

SHARE PAGE  




You need to log in to post comments