eToCache5 = ""; ?> Elias by Dispatch - guitar chords, guitar tabs and lyrics - chordie

Elias

Dispatch

---------------------------------------------------------------------------

---------------------------------------------------------------------------

 A1EDF#mA2
e|---5-----0-----2-----2-----0---|
B|---5-----0-----3-----2-----2---|
G|---6-----1-----2-----2-----2---|
D|---7-----2-----0-----4-----2---|
A|---7-----2-----------4-----0---|
E|---5-----0-----------2---------|


INTRO

Na je su achwa ne kwa, ta e su fa da da he
Na je su achwa ne kwa, ta e su fa da da he
Ta e su fa da da he, fa da da he
Ta e su fa da da he, fa da da he
Na je su achwa ne kwa, ta e su fa da da he
Na je su achwa ne kwa, ta e su fa da da he
Ta e su fa da da he, fa da da he
Ta e su fa da da he, fa da da he

 A1ED
Kasi wa i, kasi wa i, ma ka simba, er e       

 F#mE
Ndaka simba, kanamaka simba ow

 A1ED
Ndaka simba, ndaka simba            

 F#mE
Ndaka simba, kanamaka simba ow

VERSE

 A1
Raise your head, beat the sun

 ED
But your boys they lie, so close to you  

 F#mE
Do you dare get up and wake the two?

 A1E
Oh Elias, I see you there, at work in the day time

 D
Do you think you could answer all the questions of the world, 

 F#mE
in just one word? I think you could

PRE-CHORUS

 A1EF#mEDA1
    If you die will I get word that you're gone, 

 EF#mEDA1
Or will I hear it in passing conversation? 

 EF#mEDA1
Or will I stop short and   fall to the ground? 

 EF#mEDA1
Distance is short when your hand carries what your eye found.

CHORUS

 A1EF#m
 Hold my hand just one more time,

 ED
To see if you're really gonna meet me

 A1EF#m
 Hold my hand just one more time,

 ED
To see if you're really gonna meet me...

VERSE (same chords as verse 1)

Honest and Manuel, well you know,
They're at school now, given the chance that their father's never seen,
To see what's beyond Section 17
And in ten years, when you look back at your boys,
Well you know they've grown way taller than the tallest,
Sugar cane in the field.

REPEAT PRE-CHORUS

REPEAT CHORUS

INTERLUDE (3 guitars, put in time with each other)

 DA2DE
e|--2-----------0----------2-----------0---------------|
B|--3-----------2----------3-----------0---------------|
G|--2-----------2----------2-----------1---------------|
D|--0-----------2----------0-----------2---------------|
A|--------------0----------------------2---------------|
E|-------------------------------------0---------------|

| |
| |
e|-----------------------------------------------------|
B|-----------------------------------------------------|
G|--------7-----7/9--6-----------7-----7/9-------------|
D|----6-7--------------------6-7------------6-7-6------|
A|--9----------------------9----------------------7----|
E|-----------------------------------------------------|

| |
| |
e|-----------------------------------------------------|
B|-----------------------------------------------------|
G|-----------------------------------------------------|
D|------4-7-----7/9------------4-7-----7/9-------------|
A|--5-7--------------7-----5-7--------------7----------|
E|-----------------------------------------------------|


VERSE

And I see your wife, she stands stooped over by the fire outside
And I see your boys, and when they look up
You know I think they got their mother's eyes

 DA1
Cause she looks so proud            

 DE
She looks so happy         

 DA1
She looks so proud       

 DE
She looks so happy       

Yeah!

PRE-CHORUS (the only variation of it here)

 A1EF#mEDA1
   If you die, will I get word that you're gone  

 EF#mEDA1
Or Will I hear it in passing conversation?  

 EF#mEDA1
Or will I stop short and    fall to the ground?  

 EF#mEDA1
Distance is short when your hand carries what your eye found  

THE SONG ENDS ON: A(2)

LEGEND:

| / slide up
| \ slide down
| h hammer-on
| p pull-off
| ~ vibrato
| + harmonic
| x Mute note
===========================================================================


A2 D E F#m
variations - click chord images
Transpose chords:
Tuning:
Cool service:
View: Size:
A  A  A
Rating:
Layout:
  • Currently 0/5 Stars.
  • 1
  • 2
  • 3
  • 4
  • 5
 
Accuracy:
  • Currently 0/5 Stars.
  • 1
  • 2
  • 3
  • 4
  • 5
 
click stars to rate
Chordie recommends:
Check out JamPlay.com for online video guitar lessons
Songbook:
Login to add this song to your songbook
Support the artist
Preview/buy this song
MSN Music
Why this non-profit ad?

 
login to add comments/video/corrections