Chordie logo

Death To Mankind   Distortion



E-5---------------------------|
B---2-------------------------|
G-----7-9-5-------------------|
D-----------3-2-0-4-----------|ROL!!
A-------------------7---------|this tab rocks this is my favorite song
E---------------------1-3-----|

E-------------------2-4---5---6-7-8-9-0h9-----|
B-----------------5-----5---7-----------------|
G------------2-1-0----------------------------|
D----------8----------------------------------|
A-------4-7-----------------------------------|


Important: The song above is NOT stored on the Chordie server. The original song is hosted at www.guitaretab.com. Chordie works as a search engine and provides on-the-fly formatting. Chordie does not index songs against artists/composers will. To remove this song please click here.

This song is displayed as text-only. Transposing and tuning is only available for chordpro-songs.

Login - add to songbook

Rating click stars to rate

Layout
Accuracy

SHARE PAGE  

You need to log in to post comments