Guitar Tabs, Chords and Lyrics


Failed Creation   Divine Heresy



Artist: Divine Heresy

song: Failed creation

Album: Bleed the fifth


tuning: drop d for most people, drop B if you have gauge .11 strings or thicker.

i saw ther was only 1 normal guitar tab for this, and it was only the solo an it was
wrong, i have been watching a video lesson with dino cazares of how to play this song 
i
i would do us all a favour and tab it out, so far i have an intro, chorus, verse... solo 
come in time hopefully. i have tabbed it for 6 string guitar, but dino plays this
on a 7 or 8

if you could help me out on the solo please do, email me at themightymitch@hotmail.co.uk

your all clever people and hav herd the song so u shud know wher to palm mute and
paterns etc...

enjoy!!


intro & verse
|----------------------------------------------------------------|
|----------------------------------------------------------------|
|----------------------------------------------------------------|
|-22-3--22-3--22-3--22-3----2-2-22-22----------------------------|
|-22-3--22-3--22-3--22-3----2-2-22-22----------------------------|
|-22-3--22-3--22-3--22-3----2-2-22-22----------------------------|
repeat as nessacery

then... (open your f*cking eyes!..)
|-----------------------------------------------------------------|
|-----------------------------------------------------------------|
|-----------------------------------------------------------------|
|-----------10t---------------------------------------------------|
|----8t-7t--------------------------------------------------------|
|-7t--------------------------------------------------------------|


chorus
|---------------------------------------------------------------|
|---------------------------------------------------------------|
|---------------------------------------------------------------|
|---------------------------------------------------------------|
|---5t-4t-0-2--2t-4t-5t-4t----5t-4t-0-222--5-4-0----------------|
|-5-------------------------------------------------------------|
     personally id play it like above, but some people may prefer
     to play the chorus notes as power chords, whatever floats your
     boat.


repeat all this as many times it needs


then comes the fast bit in the middle, im still working on tht, if you happen to know it
let me know, my email is at the top

the next bit i think is this
|-----------------------------------------------------------------|
|-----------------------------------------------------------------|
|-----------------------------------------------------------------|
|-3-3-3---7-10-6-7------------------------------------------------|
|-3-3-3---7-10-6-7------------------------------------------------|
|-3-3-3---7-10-6-7------------------------------------------------|
  again, repeat as nessacery


sorry guys, i dont know the last part either, ill work it out 2moro



Important: The song above is NOT stored on the Chordie server. The original song is hosted at www.guitaretab.com. Chordie works as a search engine and provides on-the-fly formatting. Chordie does not index songs against artists'/composers' will. To remove this song please click here.

This song is displayed as text-only. Transposing and tuning is only available for chordpro-songs.

Login - add to songbook

Rating click stars to rate

Layout
Accuracy

SHARE PAGE  




You need to log in to post comments