Chordie logo

Radical   Division Minuscula



-------------------------------------------------------------------------------
			 RADICAL - División Minúscula
-------------------------------------------------------------------------------
Tabbed by:Rafa88
Email:rafa88offspring@hotmail.com

Tuning: Standard

Ahi va esta rola del primer disco de división, que como noté que hacían 
falta tabs de ellos aqui me dedique a sacarla, si quieren que saque alguna
otra rola de ellos o algo agreguenme al msn, o igual nada mas para cotorrear

Intro (Guitarra 1)
ustedes ahi mas o menos ven cuantas veces se toca cada uno
e|-------------------------|
B|-------------------------|
G|----5--9--5-----5--9--7--|
D|-5--5--9--5--5--5--9--7--|
A|-5--3--7--3--5--3--7--5--|
E|-3-----------3-----------|

la ultima vez lo terminan con el acorde de C

(Guitarra 2)
e|-----10-----10-----7-----7--|
B|---8------8------8-----8----|
G|-7------7------7-----7------|
D|----------------------------|
A|----------------------------|
E|----------------------------|

al final toca varias veces
e|----|
B|-8--|
G|-7--|
D|-5--|
A|----|
E|----|


Verso 
e|----------------|
B|----------------|
G|-------5--9--7--|
D|-5--2--5--9--7--|
A|-5--2--3--7--5--|
E|-3--0-----------|

al final a veces toca
e|----|
B|-8--|
G|-7--|
D|-5--|
A|----|
E|----|

Coro (Y la vida la hace cambiar...) (Guitarra 1)
e|---------------------------------------------------|
B|---------------------------------------------------|
G|-55555------------------------55555---------77777--|
D|-55555--55555---22222--55555--55555--55555--77777--|
A|-33333--55555---22222--55555--33333--55555--55555--|
E|--------33333---00000--33333---------33333---------|
la ultima vez que se toca el coro, el ultimo acorde no se toca

(Guitarra 2)
solo se tocan estos 2 acordes, esta muy facil cuando es el cambio
e|---------|
B|---------|
G|-12--14--|
D|-x---x---|
A|-10--12--|
E|---------|

"Sabe bien lo que es el dolor..."
e|--------|
B|-----8--|
G|---7----|
D|-5------|
A|--------|
E|--------|

después de eso, toquen cada figura varias veces, ahi mas o menos fijense
como va
(palm muted)
e|-----------------------------------------------------|
B|-----------------------------------------------------|

G|-----------------------------------------------------|
D|-12--10--9---7---12--14--9---12--14--9---12--14--12--|
A|-10--10--10--10--10--10--10--10--10--10--10--10--10--|
E|-----------------------------------------------------|

e|---------------------------------------------|
B|---------------------------------------------|
G|-12--16--14--12--16--14--12--16--14--12--14--|
D|-x---x---x---x---x---x---x---x---x---x---x---|
A|-10--14--12--10--14--12--10--14--12--10--12--|
E|---------------------------------------------|


| /  slide up
| \  slide down
| h  hammer-on
| p  pull-off
| ~  vibrato
| +  harmonic
| x  Mute note
===============================================================================


Important: The song above is NOT stored on the Chordie server. The original song is hosted at www.guitaretab.com. Chordie works as a search engine and provides on-the-fly formatting. Chordie does not index songs against artists/composers will. To remove this song please click here.

This song is displayed as text-only. Transposing and tuning is only available for chordpro-songs.

Login - add to songbook

Rating click stars to rate

Layout
Accuracy

SHARE PAGE  



You need to log in to post comments