Guitar Tabs, Chords and Lyrics


Que No Quede Huella  Division Minuscula

E|------------5----3-----------5----------------|


A|-5----------7----5-----------7-----2-----7----|


D|-7----------7----5------2----5-----------9----|

G|-7-----3---------------------6-----1-----7----|
B|-6-----2----------------2----------------9----|
e|-------1---------------------------------7----|
E|------------3---3------------------1----------|
A|-2---7------2---5-------3---3------3----------|
D|-2---9----------5-------2---5------3---3------|
G|—1---9----------4-----------5------2---2------|
B|-----9------------------1---5------1---1------|
e|-----7------3---------------3------1---1------|
[Am]Esta canción que canto amigos, es una mas de do[E7]lor
si es que me ven llorando amigos discúlpenme por fa[Am]vor
(piano)

E|----------------------------------------------|
A|----------------------------------------------|
D|-------------21------21------21--21--19-19----|
G|—-21----21---21--21--21--21--21--19--18-21----|
B|-----22------22--24------24--22--21--19-------|
e|-----------------22---------------------------|

(acordes para l[Am]a guitarra ac[E7]ompa[E]ñada del p[Am]iano)

Pequeño solo y los acordes que van después del piano
(2 veces)

 <-----------Am-------------------------------------|
E|--------------------------------------------------|
A|--------------------------------------------------|
D|--------------------------------------------------|
G|—-------------------------------------------------|
B|-3/5--5--------------------5/8-8------------------|
e|--------5-3--55--3-5--3-5--------8-7--88-7-8--7-8-|


(continuación)
<--------------E7---------------|
E|------------------------------|
A|------------------------------|
D|------------------------------|
G|------------------------5---2-|
B|--77-8--55-6--33-2—-3-5---3—--|
e|------------------------------|



(aquí abajo va la guitarra sin distor)

[Am]Traigo en el alma pena y llanto que no puedo con[E7]tener

y es que la quiero tanto tanto pero me [Am]toco perder
(esto lo haces con el palm mute)
[A7]Y ahora tengo que olvida[Dm]rla también, y [G] arrancarla
de mi a[C]lma y mi ser

[F]Es aquel amor que quema mi p[Dm/E7]iel

que no quede n[Am]ada
(para la 2° guitarra con distor recomiendo
los acordes con cejilla)
(1° guitarra acordes normales)

[A7]Y ahora tengo que olvida[Dm]rla también, y [G] arrancarla
de mi a[C]lma y mi ser

[F]Es aquel amor que quema mi p[Dm-E7]iel
que no quede n[Am]ada
(de preferencia usar los acordes en el 5°
traste en esta parte para la 2° guitarra)
(1° guitarra normal)
(coro)

[Dm]      [Am]                                                         
E|---------5-|
A|--5------7-|
D|--7------7-|
G|—-7--------|
B|--6--------|
e|-----------|


que no quede h[Dm]uella que no y que no que no quede h[Am]uella
por que estoy segu[Dm]ro que tu mi amor ya ni me recue[Am]rdas
que no quede h[Dm]uella que no y que no que no quede hu[Am]ella
por que estoy se[Dm]guro que tu mi amor ya ni me rec[Am]uerdas
que no quede hu[E7]ella de ti y de los b[Am]esos que te di
para conv[E7]encerme mejor que  ya te pe[Am]rdí
(va el solo junto con la otra guitarra)

<-----------Am--------------------------------------|
E|--------------------------------------------------|
A|--------------------------------------------------|
D|--------------------------------------------------|
G|—-------------------------------------------------|
B|-3/5--5--------------------5/8-8------------------|
e|--------5-3--55--3-5--3-5--------8-7--88-7-8--7-8-|


(continuación)
<--------------E7---------------|
E|------------------------------|
A|------------------------------|
D|------------------------------|
G|------------------------5---2-|
B|--77-8--55-6--33-2—-3-5---3—--|
e|------------------------------|



[Am]Traigo en el alma pena y llanto que no puedo con[E7]tener
y es que la quiero tanto tanto pero me toco perd[Am]er
(sin palm mute)
[A7]Y ahora tengo que olvida[Dm]rla también y  [G]arrancarla
de mi a[C]lma y mi ser

[F]Es aquel amor que quema m[Dm/E7]i piel
que no quede n[Am]ada

(de nuevo la guitarra con distor)

[A7]Y ahora tengo que olvida[Dm]rla también, y [G] arrancarla
de mi a[C]lma y mi ser

[F]Es aquel amor que quema mi p[Dm-E7]iel
que no quede n[Am]ada
(coro)
que no quede h[Dm]uella que no y que no que no quede h[Am]uella

por que estoy segu[Dm]ro que tu mi amor ya ni me recue[Am]rdas

que no quede h[Dm]uella que no y que no que no quede hu[Am]ella
por que estoy se[Dm]guro que tu mi amor ya ni me rec[Am]uerdas
que no quede h[Dm]uella que no…

Important: The song above is NOT stored on the Chordie server. The original song is hosted at www.guitaretab.com. Chordie works as a search engine and provides on-the-fly formatting. Chordie does not index songs against artists'/composers' will. To remove this song please click here.

Text color:
Chord color:
Chord grids: 
Font size:    
Page size: 

A7 Am C Dm E E7 F G
variations - click chord images

Login - add to songbook

Transpose chords

Tuning

Rating click stars to rate

Layout
Accuracy

SHARE PAGE  




You need to log in to post comments