Chordie logo

Motori   Divlje Jagode



Tabbed by:Haris_rock
Email:paparaco123♠@hotmail.com

Tuning:Standard

OK. Preaty easy.

e|---------------------------------------------------------------|-------------------|
B|---------------------------------------------------------------|-------------------|
G|---------------------------------------------------------------|-------------------|
D|-9-9-9-9-9-9-9-9-9-9-9-9-9-9-9-9-9-9-9-9-9-9-9-9-9-8-8-8-8-7-7-|-7-----------------|
A|---------------------------------------------------------------|----------------7--|
E|---------------------------------------------------------------|--------0--3h5-----|

e|-------------------------|--------------------|-12b14-----------------|
B|-------------------------|----------------8---|-13b15--10--12----10---|
G|-9b11-r9------9----------|------------------9-|---------------12------|
D|----------7h9---7-9----7-|----------7---9-----|-----------------------|
A|--------------------10---|----(7)h9-----------|-----------------------|
E|-------------------------|--------------------|-----------------------|
             T     T     T     T     T     T     T     T     T     T    T         
e|---------|-------------15h12-15h12-------------15h12-15h12------------15h12-15h12-------|
B|---------|-15h12-15h12-------------15h12-15h12-------------15h12-15h12------------15\X--|
G|---------|------------------------------------------------------------------------------|
D|---------|------------------------------------------------------------------------------|
A|-0/--\---|------------------------------------------------------------------------------|
E|---------|------------------------------------------------------------------------------|

e|--------------------------------15-14h15p14-12\-X---|
B|-----------------12----13-12-13---------------------|
G|-----12-11-14-12----14------------------------------|
D|-/14------------------------------------------------|
A|----------------------------------------------------|
E|----------------------------------------------------|

Please rate it.

Tab legend:

| /  Slide up
| \  Slide down
| h  Hammer-on
| p  Pull-off
| x  Mute note
| T  Tapping


Important: The song above is NOT stored on the Chordie server. The original song is hosted at www.guitaretab.com. Chordie works as a search engine and provides on-the-fly formatting. Chordie does not index songs against artists/composers will. To remove this song please click here.

This song is displayed as text-only. Transposing and tuning is only available for chordpro-songs.

Login - add to songbook

Rating click stars to rate

Layout
Accuracy

SHARE PAGE  

You need to log in to post comments