Guitar Tabs, Chords and Lyrics


Kap Po Kap  Divlje Jagode

           [/--3--/]                                                                
|-----------------------------------------------------------------|
|-----------------------------------------------------------------|
|--7/9-7----7h9p7-----7-9-7------------------------------------9--|
|--------10--------10-------10-7-----7----7-9-10--9-10-9-10-12----|
|---------------------------------10---10-------------------------|
|-----------------------------------------------------------------|
                                                         /----3----------|
-------------------------------------------------------10----------------|
-----------------------------/10-10----10-12-13--12-13----12h13p12-10~---|
-7/9-7----7-----7-9-7---------------12-----------------------------------|
-------10----10-------10-7-----------------------------------------------|
-------------------------------------------------------------------------|
-------------------------------------------------------------------------|


[A5]Jednom kad sretnes me [G5]to necu biti j[A5]a
[A5]Vec samo usponeme [G5]mrve secanj[A5]a
[C5]Samo prazna [G5]bol [D5]sad je [A5]ostala
[C5]Prazna [G5]bol [D5]kajanja

Prelaz
 -----------------------|
 -----------------------|
 ---------10----9----9--|
 -9-10-12----12---10-9--|
 --------------------7--|
 -----------------------|


[E5]I sta radis ti [F5]nije vazno mi
[G5]Te kisa [C5]jesenja [E5]podseca

Prelaz
 -----------------------|---|----------------------|
 -----------------------|---|----------------------|
 -9-10----9-------------|x3-|----9-10----9---------|
 ------12---10-12-9-10--|---|-12------12---10-12-9-|
 -----------------------|---|----------------------|
 -----------------------|---|----------------------|

[A5]Kap po [F5]kap kisa [C5]sprema[G5] se
[A5]Samo da znas nisam [F5]lud da [C5]mislim na[G5] tebe

Prelaz
 ------------------------|
 ------------------------|
 ------------------------|
 -9--10-12-9-10----9-----|
 ---------------12---10--|
 ------------------------|

[A5]Kap kap po [F5]kap [C5]opet padat [G5]ce
[F5]Te duge kise jesenj[A5]e

Important: The song above is NOT stored on the Chordie server. The original song is hosted at www.guitaretab.com. Chordie works as a search engine and provides on-the-fly formatting. Chordie does not index songs against artists'/composers' will. To remove this song please click here.

Text color:
Chord color:
Chord grids: 
Font size:    
Page size: 

A5 C5 D5 E5 F5 G5
variations - click chord images

Login - add to songbook

Transpose chords

Tuning

Rating click stars to rate

Layout
Accuracy

SHARE PAGE  




You need to log in to post comments