Guitar Tabs, Chords and Lyrics


Alexander Salamander   Dizzy Miss Lizzy



    ________________________
   / Dizzy Mizz Lizzy      /  Jeg ville nok ikke begynde at tolke på teksten
  / Alexander Salamander  /  her. Jeg tror bare det er et lyd-eksperiment de
 / Rotator               /  lavede for sjov, der lige skulle med for ikke at
/_______________________/  få Rotator til at virke alt for seriøs ;P

Tuning: Hel-tone ned (D G C F A D)


||--------------------|---------------------------|---------------------------|
||o-20b*--------------|---------------------------|---------------------------|
||--------------------|---------------------------|---------------------------|
||--7-----------------|-9--9--9--9-7---9-9--9--9--|-7--9--9--9-7---9-9--9--9--|
||o-7-----------------|-9--9--9--9-7---9-9--9--9--|-7--9--9--9-7---9-9--9--9--|
||--5-----------------|-7--7--7--7-7---7-7--7--7--|-7--7--7--7-7---7-7--7--7--|
       *kun guitaren i højre side laver dette bend anden gang


|-----------------------------|-------------------------|
|-----------0---------0-------|-------------------------|
|-2b4-------2b4-------2b4--0--|-------------------------|
|-----------------------------|-4--------4--------4-----|
|-----------------------------|-------------------------|
|-----3--3------3--3----------|-3--3--3--3--3--3--3--3/-|


|--------------------------|-----------|---------------------||
|--------------------------|-----------|--------------------o||
|--------------------------|-----------|---------------------||
|-9--9--9--9-7----7--9--9--|-3----5----|-7-------------------||
|-9--9--8--8-7----7--9--9--|-3----5----|-7------------------o||
|-7--7--7--7-7----7--7--7--|-1----3----|-5-------------------||


  " I'm Alexander Salamander
    I'm swimming in your garden lake
    Outside your window, but you're not awake now
    Alexander is not you god "


- 28th /January /08


Important: The song above is NOT stored on the Chordie server. The original song is hosted at www.guitaretab.com. Chordie works as a search engine and provides on-the-fly formatting. Chordie does not index songs against artists'/composers' will. To remove this song please click here.

This song is displayed as text-only. Transposing and tuning is only available for chordpro-songs.

Login - add to songbook

Rating click stars to rate

Layout
Accuracy

SHARE PAGE  




You need to log in to post comments